Lamb Of God - Laid To Rest Chords & Tabs

 

Laid To Rest Chords & Tabs

Lamb Of God Chords & Tabs

Version: 1 Type: Tab 4 ratings
1 star 2 stars 3 stars 4 stars 5 stars
comments

Laid To Rest Tab

   
Tuning: DADGBe
Moderately Fast 140

----------------
Key
* Pinch Harmonic
~ Vibrato
h Hammer On
p Pull Off
- Palm Mute
/ Slide Up
\ Slide Down
b Bend
r Release
x Muted Note
----------------


Intro Guitar 1 (0:01)
|---------------------------|
|---------------------------|
|---------------------------|
|--------------------0--10/-|
|--------------------0--10/-|
|--------------------0--10/-|

|-------------------------------------------------------|
|-------------------------------------------------------|
|-------------------------------------------------------|
|----------------------3--------------------------------|
|--------6-5-3-----------5-6----------------------------|
|-0-0-0---------0-0-0---------0-0-0--8-5-4/7-8-7-10-7-8-|
PM-----         -----         -----

|-------------------------------------------------------|
|-------------------------------------------------------|
|-------------------------------------------------------|
|-------4h5p4----------8-7-5--4h5p4---4-----------------|
|-------------6---------------------6---5-6-3-5---3-----|
|-0-0-0----------0-0-0--------------------------6---5-6-|
PM-----          -----

Intro Guitar 2 (timing on the above)
|-------------------------------------------------------|
|-------------------------------------------------------|
|-------------------------------------------------------|
|-0-----------------------------------------------------|
|-0-----------------------------------------------------|
|-0-----------------------------------------------------|

|-------------------------------------------------------|
|-------------------------------------------------------|
|-------------------------------------------------------|
|-0---------------------------4h5p4---4-----------------|
|-0---------------------------------6---5-6-3-5---3-----|
|-0---------------------------------------------6---5-6-|
PM                                  -------------

Guitars 1 and 2 x3 (0:08)
|-------------------------------------------------------|
|-------------------------------------------------------|
|-------------------------------------------------------|
|-------------------------------------------------------|
|-2-2-2-2------2-2-2-2--------2-2--2--------------------|
|-2-2-2-2-3b*--2-2-2-2-3b*----2-2--2-2-3-2-5-4-3--------|
PM-------      -------        ------

4th time
|-------------------------------------------------------|
|-------------------------------------------------------|
|-------------------------------------------------------|
|-------------------------------------------------------|
|-2-2-2-2------2-2-2-2--------2-2--2--------------------|
|-2-2-2-2-3b*--2-2-2-2-3b*----2-2--2-2-3-2-3-2-1--------|
PM-------      -------        ------

1st Verse Guitar 1 (0:22)
|--------------------------------------|
|-------------------13-------11--------| 8x
|-15p14----12h14-------15-------14-----|
|-------12-------12-------12-------12--|
|--------------------------------------|
|--------------------------------------|

Guitar 2
|-------------------------------------------------------|
|-------------------------------------------------------|
|-------------------------------------------------------| 4x
|-------------------------------------------------------|
|-0-0-0-0-0---0-0-0-0-0---0-0--0--0-0-0-0---------------|
|-0-0-0-0-0---0-0-0-0-0---0-0--0--0-0-0-0---------------|
PM---------------------------------------

Guitar 1 and 2 (0:35, 1:24)
|-------------------------------------------------------|
|-------------------------------------------------------|
|-------------------------------------------------------|
|-------------------------------------------------------|
|-2-2-2-2------2-2-2-2--------2-2--2--------------------|
|-2-2-2-2-3b*--2-2-2-2-3b*----2-2--2-2-3-2-5-4-3--------|
PM-------      -------        ------

|-------------------------------------------------------|
|-------------------------------------------------------|
|-------------------------------------------------------|
|-------------------------------------------------------|
|-2-2-2-2------2-2-2-2--------2-2--2--------------------|
|-2-2-2-2-3b*--2-2-2-2-3b*----2-2--2-2-3-2-3-2-1--------|
PM-------      -------        ------

2nd and 3rd Verse Guitars 1 and 2 (0:42, 1:31)
|-------------------------------------------------------|
|-------------------------------------------------------|
|-------------------------------------------------------|
|----------------------3--------------------------------|
|--------6-5-3-----------5-6----------------------------|
|-0-0-0---------0-0-0---------0-0-0--8-5-4/7-8-7-10-7-8-|
PM-----         -----         -----
|-------------------------------------------------------|
|-------------------------------------------------------|
|-------------------------------------------------------|
|-------4h5p4----------8-7-5--4h5p4---4-----------------|
|-------------6---------------------6---5-6-3-5---3-----|
|-0-0-0----------0-0-0--------------------------6---5-6-|
PM-----          -----

Guitar 1 plays the top riffs once and plays this riff
|-------------------------------------------------------|
|-------------------------------------------------------|
|-/7----------------5----12---11------------5----3------|
|--x----------------x-----x----x------------x----x----7-|
|-/5----------------3----10----9------------3----1----x-|
|-----------------------------------------------------7-|
[ Tab from: http://www.guitartabs.cc/tabs/l/lamb_of_god/laid_to_rest_tab.html ]
|-------------------------------------------------------|
|-------------------------------------------------------|
|-------------------------------------------------------|
|-5----5/8----7-----------------------------3----1------|
|-x----x-x----x-----------------------------x----x------|
|-5----5/8----7-----------------------------3----1------|

Chorus Guitars 1 and 2 (1:10, 1:58, 2:48)
|-------------------------------------------------------|
|-------------------------------------------------------|
|-------------------------------------------------------| 2x
|-------------------------------------------------------|
|-------------------------------------------------------|
|-0--0-6-3-5-0--0-1-3-1-0--0-6-3-5-----0-1-3-5*-3-------|
PM                                     -----
                                       * - slight p.h.

|-------------------------------------------------------|
|-------------------------------------------------------|
|-------------------------------------------------------| 2x
|-------------------------------------------------------|
|-------------------------------------------------------|
|-000-6-3-5-000-1-3-1-000-6-3-5--------0-1-3-5*-3-------|
PM---       ---       ---              -----
                                       * - slight p.h.

Guitar 1 (2:12)
|-------------------------------------------------------|
|-------------------------------------------------------|
|-------------------------------------------------------|
|-------------------------------------------------------|
|-------------------------------------------------------|
|-1-1-1-1-1---1-1-1-1-1---1-1--1--1-1-1-1---------------|
PM---------------------------------------

|-------------------------------------------------------|
|-------------------------------------------------------|
|-------------------------------------------------------|
|-------------------------------------------------------|
|-------------------------------------------------------|
|-1-1-1-1-1---1-1-1-1-1---1-1--1--1-1-------------------|
PM-----------------------------------

Guitars 1 and 2 (2:20)
|-------------------------------------------------------|
|-------------------------------------------------------|
|-------------------------------------------------------|
|-------------------------------------------------------|
|-0-0-0-0-0---0-0-0-0-0---0-0--0--0-0-0-0---------------|
|-0-0-0-0-0---0-0-0-0-0---0-0--0--0-0-0-0---------------|
PM---------------------------------------

Guitar 2 (2:34)
|-------------------------------------------------------|
|-------------------------------------------------------|
|-------------------------------------------------------| 3x
|----------------------3--------------------------------|
|--------6-5-3-----------5-6----------------------------|
|-0-0-0---------0-0-0---------0-0-0--8-5-4/7-8-7-10-7-8-|
PM-----         -----         -----

|-------------------------------------------------------|
|-------------------------------------------------------|
|-------------------------------------------------------|
|---------------------3-------4h5p4---4-----------------|
|--------6-5-3----------5-6---------6---5-6-3-5---3-----|
|-0-0-0---------0-0-0---------------------------6---5-6-|
PM-----         -----

Guitar 1
|-------------------------------------------------------|
|-------------------------------------------------------|
|-------------------------------------------------------| 3x
|-------------------------------------------------------|
|-------------------------------------------------------|
|-0-0-0-0-0---0-0-0-0-0---0-0--0--0-0-0-0---------------|
PM---------------------------------------

|-------------------------------------------------------|
|-------------------------------------------------------|
|-------------------------------------------------------|
|-------------------------------------------------------|
|---------------------------------------------/16\\\----|
|-0-0-0-0-0---0-0-0-0-0---0-------------------/16\\\----|
PM-------------------------

Pre Verse (3:02)
Guitar 1----       Guitar 2--
|-------------------------------------------------------|
|-------------------------------------------------------|
|-------------------------------------------------------|
|-------------------------------------------------------|
|-------------------------------------------------------|
|-0-1-3-5*-3-------0-4-7-7b-4---------------------------|
PM-----            -

Verse 4 Guitars 1 and 2 (3:04)
|-------------------------------------------------------|
|-------------------------------------------------------|
|-------------------------------------------------------|
|-------------------------1-------1---1-------1---------|
|-5-------5---5-------5---------------------------------|
|---5-0-5---5---5-0-5---5---5-1-5---5---5-1-5---5-------|
PM  -----   -   -----   -   -----   -   -----   -

|-------------------------------------------------------|
|-------------------------------------------------------|
|-------------------------------------------------------|
|-------------------------------------------------------|
|----------------------------0-------0---0-------0------|
|-8-7-5-7-8-7-8-7-5-7-8-7-0----5-1-5---1---5-1-5---1----|
PM-------------------------    -----   -   -----   -

Outro (3:33) Guitar 2
|--------------------------------------|
|-------------------13-------11--------| 7x
|-15p14----12h14-------15-------14-----|
|-------12-------12-------12-------12--|
|--------------------------------------|
|--------------------------------------|

Guitar 1
|-------------------------------------------------------|
|-------------------------------------------------------|
|-------------------------------------------------------| 4x
|-------------------------------------------------------|
|-0-0-0-0-0---0-0-0-0-0---0-0--0--0-0-0-0---------------|
|-0-0-0-0-0---0-0-0-0-0---0-0--0--0-0-0-0---------------|
Comments