Lamb Of God - In Defense Of Our Good Name Chords & Tabs

 

In Defense Of Our Good Name Chords & Tabs

Lamb Of God Chords & Tabs

Version: 1 Type: Tab 0 ratings
1 star 2 stars 3 stars 4 stars 5 stars
comments

In Defense Of Our Good Name Tab

Artist: LAMB OF GOD!
Song:   In Defense of Our Good Name
Tabber: Mr Sumo/Sumo Man
EMail:  Mrsumo95@aol.com, Any Questions?


E|--------------------------------------------------------||
B|--------------------------------------------------------||
G|--------------------------------------------------------||
D|--------------------------------------------------------||
A|---5h8p5--------5h8p5--------5h8p5--------5h8p5---------||
D|----------0--0---------0--0---------0--0---------0--0---||


E|--------------------------------------------------------||
B|--------------------------------------------------------||
G|--------------------------------------------------------||
D|--------------------------------------------------------||
A|---4h7p4--------4h7p4--------4h7p4--------4h7p4---------||
D|----------0--0---------0--0---------0--0---------0--0---||


E|--------------------------------------------------------||
B|--------------------------------------------------------||
G|--------------------------------------------------------||
D|--------------------------------------------------------||
A|---5h8p5--------5h8p5--------5h8p5--------5h8p5---------||
D|----------0--0---------0--0---------0--0---------0--0---||


E|--------------------------------------------------------||
B|--------------------------------------------------------||
G|--------------------------------------------------------||
D|--------------------------------------------------------||
A|---4h7p4--------4h7p4--------4h7p4--------4h7p4---------||
D|----------0--0---------0--0---------0--0---------0--0---||


E|----------------------||
B|----------------------||
G|----------------------||
D|----------------------|| [ Tab from: http://www.guitartabs.cc/tabs/l/lamb_of_god/in_defense_of_our_good_name_tab.html ]
E|-----------------------||
B|-----------------------||
G|-----------------------||
D|-----------------------||
A|---------0--1--2--3----||
D|---4--3--0--1--2--3----||
           X

Guitar 1
E|------------------------------------------------||
B|------------------------------------------------||
G|------------------------------------------------||
D|------------------------------------------------||
A|------------------------------------------------||
D|---0---0---0---0---0---0---0---4--4--4--1--1--1-||


E|------------------------------------------------||
B|------------------------------------------------||
G|------------------------------------------------||
D|------------------------------------------------||
A|------------------------------------------------||
D|---0---0---0---0---0---0---0---4--4--4--5--5--5-||


Guitar 2
E|------------------------------------------||
B|------------------------------------------||
G|--------10--10--9--9----------------------||
D|---------8---8--7--7----------------------||
A|------------------------------------------||
D|---0--------------------------------------||

...And here is where the song gets it flair!...

E|------------------------------------------------||
B|------------------------------------------------||
G|------------------------------------------------||
D|------------------------------------------------||
A|---5h8p5----5h8p5-----5h8p5--5h8p5-----5h8p5----||
D|----------0--------0----------------0---------0-||
            X        X                X         X

E|---------------------------------------------------||
B|---------------------------------------------------||
G|---------------------------------------------------||
D|---------------------------------------------------||
A|---5h8p5--4h7p4-----4h7p4----4h7p4-----4h7p4-------||
D|-----------------0---------0--------0---------0--0-||
                   X         X        X         X  X

E|-------------------------------------------------||
B|-------------------------------------------------||
G|-------------------------------------------------||
D|-------------------------------------------------||
A|---1h4p1----1h4p1-----1h4p1--1h4p1------1h4p1----||
D|----------0--------0----------------0----------0-||
            X        X                X          X

E|----------------------------------------------------||
B|----------------------------------------------------||
G|----------------------------------------------------||
D|----------------------------------------------------||
A|---1h4p1--0h3p0-----0h3p0----0h3p0-----0h3p0--------||
D|-----------------0---------0--------0---------0143--||
                   X         X        X         XXXX

E|------------------------------------------------||
B|------------------------------------------------||
G|-----------3-----------2------------------------||
D|---------0-----------0-----------0-4------------||
A|------------------------------------------------||
D|---0-1-0-------0-1-0-------0-1-0-------0-1-4----||
     X X X X     X X X X     X X X X     X X 

E|--------------||
B|--------------||
G|--------------||
D|--------------||
A|---1-0-1-0----||
D|---1-0-1-0----||

E|------------------------------------------------||
B|------------------------------------------------||
G|------------------------------------------------||
D|------------------------------------------------||
A|-----------1/-3-----2/-3-----3/-4---------------||
D|---0-0-0-0-1/-3-0-0-2/-3-0-0-3/-4-0-0-----------||
     X X X X      X X      X X      X X

E|------------------------------------------------||
B|------------------------------------------------||
G|------------------------------------------------||
D|------------------------------------------------||
A|------------------------------------------------||
D|---000000011111113333333344444444---------------||
      XXXXXX XXXXXX XXXXXXX XXXXXXX

E|--------------||
B|--------------||
G|--------------||
D|--------------||
A|---1-0-1-0----||
D|---1-0-1-0----||


E|--------------------------------------||
B|--------------------------------------||
G|--------------------------------------||
D|--------------------------------------||
A|---1----------1---1-------------------||
D|---1-0-0--0-0-1-0-1-0-0-0-0-0-0-0-----||
       X X  X X   X   X X X X X X X

E|--------------------------------------||
B|--------------------------------------||
G|--------------------------------------||
D|--------------------------------------||
A|---1----------1---1--5-4-----4-3------||
D|---1-0-0--0-0-1-0-1-0----2-4-----2----|| 
       X X  X X   X   X

E|--------------------------------------||
B|--------------------------------------||
G|--------------------------------------||
D|--------------------------------------||
A|---1----------1---1-------------------||
D|---1-0-0--0-0-1-0-1-0-0-0-0-0-0-0-----||
       X X  X X   X   X X X X X X X

E|--------------------------------------||
B|--------------------------------------||
G|--------------------------------------||
D|--------------------------------------||
A|---1----------1---1-------------------||
D|---1-0-0--0-0-1-0-1---4-4-4-1-1-1-----||
       X X  X X   X

E|-------------------------------||
B|-------------------------------||
G|-------------------------------||
D|-------------------------------||
A|----------5h8p5--------5h8p5---||
D|---000000-------000000---------||
     XXXXXX       XXXXXX

E|-------------------------------||
B|-------------------------------||
G|-------------------------------||
D|-------------------------------||
A|----------4h7p4--------4h7p4---||
D|---000000-------000000---------||
     XXXXXX       XXXXXX

E|-------------------------------||
B|-------------------------------||
G|-------------------------------||
D|-------------------------------||
A|----------1h4p1--------1h4p1---||
D|---000000-------000000---------||
     XXXXXX       XXXXXX

E|-----------------------||
B|-----------------------||
G|-----------------------||
D|-----------------------||
A|---------0--1--2--3----||
D|---4--3--0--1--2--3----||
           X

E|--------------------------------------------------------||
B|--------------------------------------------------------||
G|--------------------------------------------------------||
D|--------------------------------------------------------||
A|---5h8p5--------5h8p5--------5h8p5--------5h8p5---------||
D|----------0--0---------0--0---------0--0---------0--0---||


E|--------------------------------------------------------||
B|--------------------------------------------------------||
G|--------------------------------------------------------||
D|--------------------------------------------------------||
A|---4h7p4--------4h7p4--------4h7p4--------4h7p4---------||
D|----------0--0---------0--0---------0--0---------0--0---||


E|---------------------------------------------------------||
B|---------------------------------------------------------||
G|---------------------------------------------------------||
D|---------------------------------------------------------||
A|---7h10p7-------7h10p7-------7h10p7-------7h10p7---------||
D|----------0--0---------0--0----------0--0---------0--0---||


E|-----------------------------||
B|-----------------------------||
G|-----------------------------||
D|-----------------------------||
A|---9h12p9-------9h12p9-------||
D|----------0--0---------0--0--||


E|-----------------------||
B|-----------------------||
G|-----------------------||
D|-----------------------||
A|---------0--1--2--3----||
D|---4--3--0--1--2--3----||
           X


Thats the whole song...How in the hell do Will and Mark make this stuff up!
There really good!
Well...this tab took so long that now ima get some ice cream.
You cant have none...MWUHAHAHAHAHAHAHAHAHAHA!

O yeah, rate this really good...


________________________________________________________________
Sumo man
Comments