Lamb Of God - Hourglass Chords & Tabs

 

Hourglass Chords & Tabs

Lamb Of God Chords & Tabs

Version: 4 Type: Tab 0 ratings
1 star 2 stars 3 stars 4 stars 5 stars
comments

Hourglass Tab

   
-------------------------------------------------------------------------------
			     Hourglass - Lamb of God
-------------------------------------------------------------------------------
Tabbed by:nickdyer
Email:Iwtozz03@aol.com

Intro

e|--------------------------------------------------------------------------|
B|--------------------------------------------------------------------------|
G|----------------------------------------------------------10/9-14/13------|
D|--------------------------------------------------------------------------|
A|--------7/8-----8/10---------------------7/8-----7/12---------------------|
D|000-000-----000------000-3/7/6/2-000-000-----000------000-----------------|
  ... ...     ...      ...         ... ...     ...      ...
e|--------------------------------------------------------------------------|
B|--------------------------------------------------------------------------|
G|--------------------------------------------------------------------------|
D|--------------------------------------------------------------------------|
A|--------7/8-----8/10------------------------------------------------------|
D|000-000-----000------000-3/7/6/2-000-000-13/12-000-12/11-000-0-13-16/17/16|
  ... ...     ...      ...         ... ...       ...       ... . .  

Rif B
[ Tab from: http://www.guitartabs.cc/tabs/l/lamb_of_god/hourglass_tab_ver_4.html ]
e|--------------------------------------------------------------------------|
B|--------------------------------------------------------------------------|
G|--------------------------------------------------------------------------|
D|----------------------------------10--------------------------------------|
A|----13---10/12-----13---10/12--------------13---10/12--------12-10--------|
D|000----0-------000----0-------0-8----8-000----0-------000-10-------13-
  ...    .       ...    .       . .      ...    .       ... .  .  . 
9/10/9-6/5|

Fill for Riff B

e|--------------------------------------|
B|--------------------------------------|
G|--------------------------------------|
D|---------------------8-7--------------|
A|----13---10/12-----6-----10-8/9/8-5/4-|
D|000----0-------000--------------------|
  ...    .       ... . . . 
Second fill the last two notes are:
e|----|
B|----|
G|----|
D|----|
A|----|
D|5/1-|

Riff C
e|-----------------------------------------------------------|
B|-----------------------------------------------------------|
G|-----------------------------------------------------------|
D|----8---5/7---8---5/7---------------8---5/7---1010--8-8----|
A|----6---3/5---6---3/5---------------6---3/5---8-8---6-6---0|
D|0-0---0-----0---0-----0-0-0-0-0-0-0---0-----0-----0-----0-0|
  . .   .     .   .     . . . . . . .   .     .     .     .

e|-----------------------------------------------------------|
B|-----------------------------------------------------------|
G|-----------------------------------------------------------|
D|----8---5/7---8---5/7---------------8---5/7----------------|
A|(0)-6---3/5---6---3/5---------------6---3/5---3-3---1-1---0|
D|(0)---0-----0---0-----0-0-0-0-0-0-0---0-----0-3-3-0-1-1-0-0|
        .     .   .     . . . . . . .   .     .     .     .      

| /  slide up
| \  slide down
| h  hammer-on
| p  pull-off
| ~  vibrato
| +  harmonic
| .  Palm Mute note
===============================================================================
Comments