Lamb Of God - Faded Line Chords & Tabs

 

Faded Line Chords & Tabs

Lamb Of God Chords & Tabs

Version: 2 Type: Tab 0 ratings
1 star 2 stars 3 stars 4 stars 5 stars
comments

Faded Line Tab

   
-----------------------------------------------------------------------------
			     FADED LINE - Lamb of God
-----------------------------------------------------------------------------
Tabbed by:Nick Dyer
Email:Iwtozz03@aol.com

Tuning:
[ Tab from: http://www.guitartabs.cc/tabs/l/lamb_of_god/faded_line_tab_ver_2.html ]
e|----------------------------------------|
B|----------------------------------------|
G|*---------------------------------------|
D|*---------------------------------------|
A|----------------------------------------|
D|-000-16-0-16-0-16-0-16-0-16-0-16-0-16-0-|
   ...    .    .    .    .    .    .    .
e|---------------------------------------|
B|---------------------------------------|
G|---------------------------------------|
D|---------------------------------------|
A|---------------------------------------|
D|000-15-0-15-0-15-0-15-0-15-0-15-0-15-0-|
  ...    .    .    .    .    .    .    .
e|---------------------------------------|                                  
B|---------------------------------------|
G|---------------------------------------|
D|---------------------------------------|
A|---------------------------------------|
D|000-18-0-18-0-18-0-13-0-13-0-13-0-13-0-|
  ...    .    .    .    .    .    .    .
e|--------------------------------------------||
B|--------------------------------------------||
G|-------------------------------------------*||4 times
D|-------------------------------------------*||
A|-------------------16-13-12-17-13-----------||
D|000-12-0-12-0-12-0----------------15-16-13--||
  ...    .    .    .
e|-----------------------------------------------------------------|
B|-----------------------------------------------------------------|
G|*----------------------------------------------------------------|
D|*----------------------------------------------------------------|
A|-0---------------------------------------------------------------|
D|-0-------000-000-000-000-000-000-----000-000-000-000-000-000-000-|
           ... ... ... ... ... ...     ... ... ... ... ... ... ...
e|--------------------------------|
B|--------------------------------|
G|--------------------------------|
D|--------------------------------|
A|3-------------------------------|
D|3-------333-333-333-333-333-333-|
          ... ... ... ... ... ...
e|---------------------------------|
B|---------------------------------|
G|--------------------------------*|
D|--------------------------------*|
A|---------------------------------|
D|----333-333-333-444-444-73006200-|
      ... ... ... ... ... ........
e|------------------------------------------|
B|------------------------------------------|
G|*----------------------------------------*|4 times
D|*----------------------------------------*|
A|------------------------------------------|
D|-0-0-0-0-0-0-0-0-0-0-0-0-1915141418141317-|                              
   . . . . . . . . . . . .
e|-------------------------------|Play this on the 2nd time then 
B|-------------------------------|continue the riff above.
G|-------------------------------|Slide up from 8 to 17 or so 
D|-------------------------------|and then back to 0.
A|-------------------------------|
D|--------------------------8/\0-|

e|------------------------------------------|
B|------------------------------------------|
G|*----------------------------------------*|4 times
D|*----------------------------------------*|
A|------------------------------------------|
D|-0-000-000-000-000-000-001915141418141317-|
   . ... ... ... ... ... ..
e|-----------------------------------|
B|-----------------------------------|
G|-----------------------------------|
D|-----------------7-----------------|
A|----7---8---10-------10---8----7---|
D|8-88--88--88---88--88---88--88---88|
  . ..  ..  ..   ..  ..   ..  ..   ..
e|----------------------------------------|
B|----------------------------------------|
G|----------------------------------------|repeat for 
D|------------5---7---5-------------------|however long.
A|----7---8-------------------------------|
D|5-55--55--55--55--55--5-1915141418141317|
  . ..  ..  ..  ..  ..  .
e|-------------------Repeat-however-many-times---------------------|
B|-----------------------------------------------------------------|
G|*---------------------------------------------------------------*|
D|*---------------------------------------------------------------*|
A|-----------------------------------------------------------------|
D|-000000000-------000000000-------000000000-------0000000073006200|
   .........       .........       .........       ................
Play this over the riff above.
e|-------------------------------------------|
B|-------------------------------------------|
G|*------------------------------------------|
D|*------------------------------------------|
A|-------------------------------------------|
D|---------12/13-12/13-17~--12-12---13-13-10-|

e|------------------------------------------|
B|------------------------------------------|
G|-----------------------------------------*|However many
D|-----------------------------------------*|times.
A|------------------------------------------|
D|--------12/13-12/13-17~--12-12---13-10----|

Third guitar plays with 2nd guitar.
e|------------------------------------------|
B|------------------------------------------|
G|------------------------------------------|
D|------------------------------------------|
A|--------12/13-12/13-17~--12-12---13-13-10-|
D|------------------------------------------|

e|------------------------------------------|
B|------------------------------------------|
G|------------------------------------------|
D|------------------------------------------|
A|--------12/13-12/13-17~--12-12---13-10----|
D|------------------------------------------|

Well thats as far as i got so far.

| /  slide up
| \  slide down
| h  hammer-on
| p  pull-off
| ~  vibrato
| +  harmonic
| .  Mute note
=============================================================================
Comments