Lamb Of God - Boot Scraper Chords & Tabs

 

Boot Scraper Chords & Tabs

Lamb Of God Chords & Tabs

Version: 1 Type: Tab 0 ratings
1 star 2 stars 3 stars 4 stars 5 stars
comments

Boot Scraper Tab

   
BAnd- Lamb Of God
Song- Boot Scraper

Tuning D A D G B E (Drop-D Tuning)

First Riff (Play 2x)

|---------------------------------------------------------------|
|---------------------------------------------------------------|
|---------------------------------------------------------------|
|---------------------------------------------------------------|
|-0-----0-------------0---0-------------0---0-------------0---0-|
|-0-0-0-0-00000000000-0-0-0-00000000000-0-0-0-00000000000-0-0-0-|
  x . . x ........... x . x ........... x . x ........... x . x
|-------------------------------------------------------------------|
|-------------------------------------------------------------------|
|-------------------------------------------------------------------|
|-------------------------------------------------------------------|
|-------------0---0-------------0---0-------------0---0-------------|
|-00000000000-0-0-0-00000000000-0-0-0-00000000000-0-0-0-00000000000-|
  ........... x . x ........... x . x ........... x . x ...........
|------------|
|------------|
|------------|
|--------111-|
|-0-0-333----|
|-0-0--------|
  . .

Second Riff (Play 2x)

|--------------------------------------------------|
|--------------------------------------------------|
|--------------------------------------------------|
|---7-8fb10rb8--7-8fb10rb8--7-8fb10rb8--7-8fb10rb8-|
|--------------------------------------------------|
|-00-0--------00-0--------00-0--------00-0---------|
  xx x        xx x        xx x        xx x
|-----------------------------------|
|-----------------------------------|
|-----------------------------------|
|----6-7------6-7-------------------|
|---------------------10-8-----7-55-|
|-000-0--0-000-0-0-888--0-8-555-0---|
  xxx x  x xxx x x ...  x x ... x,,
|--------------------------------------------------|
|--------------------------------------------------|
|---------------------------------------7----------|
|---7-8fb10rb8--7-8fb10rb8--7-8fb10rb8----8fb10rb8-|
|-00----------00----------00----------00-----------|
|-00-0--------00-0--------00-0--------00-0---------|
  xx x        xx x        xx x        xx x
|---------------------------------|
|---------------------------------|
|---------------------------------|
|----6-7-----6-7--------------111-|
|--------------------3-1--/333----|
|-000-0-0-000-0-0-111-1-0---------|
  xxx . . xxx . . xxx . .

Bridge (Play One Time)

|-----------|
|-----------|
|-----------|
|---3/5/666-|
|---3/5/666-|
|-0-3/5/666-|
  .

Third Riff (Play One Time)

|-------------------------------------------------------------------|
|-------------------------------------------------------------------|
|-------------------------------------------------------------------|
|-------------------------------------------------------------------|
|-0-----0-----0-----0-----0-----0-----0-----0-----0-----0-----0-----|
|-0-0-0-0-0-0-0-0-0-0-0-0-0-0-0-0-0-0-0-0-0-0-0-0-0-0-0-0-0-0-0-0-0-|
  , x x , x x , x x , x x , x x , x x , x x , x x , x x , x x , x x
|-------------------------------|
|-------------------------------|
|-------------------------------|
|-------------------------------|
|-0-----0-----0-----0-----0-----|
|-0-0-0-0-0-0-0-0-0-0-0-0-0-0-0-|
  , x x , x x , x x , x x , x x

Fourth Riff (Play Two Times)

|---------------------------------------------------------|
|---------------------------------------------------------|
|----5-5-----------------5-5-5-----------5-5--------------|
|-0--5-5-----------------5-5-5-6666------5-5--------------|
|-0--3-3-----------------3-3-3-6666------3-3--------------|
|-0-0-0-0-0-0-0-0-0-0-0-0-0-0--6666-0-0-0-0-0-0-0-0-0-0-0-|
  , x,x,x x x x x x x x x,x,x, ,,,, x x x,x,x x x x x x x
|-----------------|
|-----------------|
|-----------------|
|---54------------|
|-56-------356535-|
|-----0-0-0-------|
  ,,,,x x x,,,,,,
|-----------------------------------------------------------|
|-----------------------------------------------------------|
|------5-5-----------------5-5-5-----------5-5--------------|
|------5-5-----------------5-5-5-6666------5-5--------------|
|------3-3-----------------3-3-3-6666------3-3--------------|
|-0-0-0-0-0-0-0-0-0-0-0-0-0-0-0--6666-0-0-0-0-0-0-0-0-0-0-0-|
  x x x,x,x x x x x x x x x,x,x, ,,,, x x x,x,x x x x x x x
|-----------------|
|-----------------|
|-----------------|
|-----------5-444-|
|-----------5-444-|
|-0787-0-0-050444-|
  ,,,, x x x,x,,,

Bridge

|-----------------------------------|
|-----------------------------------|
|-----------------------------------|
|-----------------------------------|
|-----------------------------------|
|-333333333333333-3/6-6666666666666-|
  ...............     .............

Fifth Riff (Play 4x)
[ Tab from: http://www.guitartabs.cc/tabs/l/lamb_of_god/boot_scraper_tab.html ]
|-------------------------------------------------------------|
|-------------------------------------------------------------|
|-------------------------------------------------------------|
|--3\2-2---------------3\2-2---------------3\2-2--------------|
|-5---4-4-0-0-0-0-0-0-5---4-4-2-2-3-3-1-1-5---4-4-0-0-0-0-0-0-|
|---------0-0-0-0-0-0---------2-2-3-3-1-1---------0-0-0-0-0-0-|
  ,       x x x x x x ,       x x x x x x ,       x x x x x x
|------------|*|-------------|*This last part right here is played
|------------| |-------------|normally except for the last time when
|------------| |-------------|it is not played at all and the
|------------| |-------------|following bridge is played instead.
|---4-5hb6rb5| |-0-0-0-0-0-0-|
|-37-0-------| |-0-0-0-0-0-0-|
                 x x x x x x

Bridge

|-------|
|-------|
|-------|
|-------|
|---04--|
|-/3--6-|

Sixth Riff (Play 4x)

|--------------------------------------------------------------|
|--------------------------------------------------------------|
|--------------------------------------------------------------|
|--------------------------------------------------------------|
|-/1312-------1211-------12----1511------4\1-1-1-1-1-4-0-0-0-0-|
|------0-0-0-0----0-0-0-0--1512----1411~-4\1-1-1-1-1-4-0-0-0-0-|
       x x x x    x x x x                x x x x x x x x x x x
*|---------|*This last part right here is played normally except
 |---------|for the last time when it is not played at all and the
 |---------|following bridge is played instead.
 |---------|
 |-0-0-0-0-|
 |-0-0-0-0-|
   x x x x

Bridge

|----------|
|----------|
|----------|
|----------|
|----------|
|-33336666-|
  ........

Seventh Riff (Play 7x)

|---------------------------|
|---------------------------|
|---------------------------|
|---------------------------|
|---------------------------|
|-1111-1111-1111-1111-11111-|
  .... .... .... .... .....

8th Riff (Play One Time)

|-----------------------|
|-----------------------|
|-----------------------|
|-----------------------|
|-----------------------|
|-1111-1111-1111-1111-1-|
  .... .... .... .... .

9th Riff (Play One Time)

|---------------------------------------------------------|
|---------------------------------------------------------|
|---------------------------------------------------------|
|---------------------------------------------------------|
|-0-----0-------------0---0-------------0---0-------------|
|-0-0-0-0-00000000000-0-0-0-00000000000-0-0-0-00000000000-|
  x . . x ........... x . x ........... x . x ...........
|-------------------------------------------------------|
|-------------------------------------------------------|
|-------------------------------------------------------|
|-------------------------------------------------------|
|-0---0-------------0---0-------------0---0-------------|
|-0-0-0-00000000000-0-0-0-00000000000-0-0-0-00000000000-|
  x . x ........... x . x ........... x . x ...........
|-------------------------------|
|-------------------------------|
|-------------------------------|
|---------------------------111-|
|-0---0-------------0-0-/333----|
|-0-0-0-00000000000-0-0---------|
  x . x ........... x x

Tenth Riff (Play 2x)

|-----------------------------------------------------|
|-----------------------------------------------------|
|-----------------------------------------------------|
|-----------------------------------------------------|
|----5-7fb9rb7----5-7fb9rb7----5-7fb9rb7----5-7fb9rb7-|
|-000-0--------000-0--------000-0--------000-0--------|
  ... .        ... .        ... .        ... .
|----------------------------|
|----------------------------|
|----------------------------|
|--------------------6-------|
|----5-8----5-8----5---3-3-1-|
|-666-6--666-6--333-3--3-3-1-|
  ... ., ... ., ... ., , , ,

Eleventh Riff (Play One Time)

|-------------------------------------------------|
|-------------------------------------------------|
|-------------------------------------------------|
|-------------------------------------------------|
|-0-----0-----0-----0-----0-----0-----0-----0-----|
|-0-0-0-0-0-0-0-0-0-0-0-0-0-0-0-0-0-0-0-0-0-0-0-0-|
  x . . x . . x . . x . . x . . x . . x . . x . .
|-------------------------------------------------|
|-------------------------------------------------|
|-------------------------------------------------|
|-------------------------------------------------|
|-4-----4-----4-----4-----1-----1-----1-----1-----|
|-4-4-4-4-4-4-4-4-4-4-4-4-1-1-1-1-1-1-1-1-1-1-1-1-|
  x . . x . . x . . x . . x . . x . . x . . x . .
|-------------------------------------------------|
|-------------------------------------------------|
|-------------------------------------------------|
|-------------------------------------------------|
|-0-----0-----0-----0-----0-----0-----0-----0-----|
|-0-0-0-0-0-0-0-0-0-0-0-0-0-0-0-0-0-0-0-0-0-0-0-0-|
  x . . x . . x . . x . . x . . x . . x . . x . .
|-------------------------------------------------|
|-------------------------------------------------|
|-------------------------------------------------|
|-------------------------3-----3-----5-----5-----|
|-4-----4-----4-----4-----1-1-1-1-1-1-3-3-3-3-3-3-|
|-4-4-4-4-4-4-4-4-4-4-4-4-------------------------|
  x . . x . . x . . x . . x . . x . . x . . x . .

Last Riff (Play 4x)

|------------------------------------|
|------------------------------------|
|------------------------------------|
|------------------------------------|
|-0-----0-------------0---0----------|
|-0-0-0-0-00000000000-0-0-0-00000000-|
  x     x ........... x   x ........
|-------------------------------------|*|---|*This lone chord is
|-------------------------------------| |---|played only the last
|-------------------------------------| |---|time through when the
|-------------------------------------| |---|song is over.
|-------------------------------------| |-0-|
|-1070-1070-1070-1070-960-960-850-851-| |-0-|
Comments