Lamb Of God - Blood Of The Scribe Chords & Tabs

 

Blood Of The Scribe Chords & Tabs

Lamb Of God Chords & Tabs

Version: 2 Type: Tab 0 ratings
1 star 2 stars 3 stars 4 stars 5 stars
comments

Blood Of The Scribe Tab

i've seen this part of the song tabbed wrong at FIVE different sites(they were all the
same actually, people copying an incorrect tab and posting it as there own, lol serves
you idiots right)!!! Play it THIS WAY. ITS THE RIGHT WAY.  Sounds better doesn't it!
p.s. the open (D)'s over the hammerons only happen twice.the 1st time and after the
"laid to waste" line
[ Tab from: http://www.guitartabs.cc/tabs/l/lamb_of_god/blood_of_the_scribe_tab_ver_2.html ]
	Guitar 1 & 2 (1:35-2:04)
e|----------------------------------------------------------|
B|----------------------------------------------------------|
G|-------7h10---6h9---------10p9---9p7-----------9h10p9-----|
D|------(0)----(0)-------------------------11-12------------|
A|-0--------------------------------------------------------|
D|-0----------0-----0-0-000------0-----0-0------------------|
              .     . . ...      .     . . . .

e|----------------------------------------------------------|
B|----------------------------------------------------------|
G|-------7h10--6h9------------------------------------------|
D|--------------------------8p7---7\5--------6h7p6----------|
A|---------------------------------------7-8-------7--------|
D|-8-888------8-----8-8-888-----8------8--------------------|
   . ...      .     . . ...     .      . . .
Comments