Lamb Of God - Blood Of The Scribe Chords & Tabs

 

Blood Of The Scribe Chords & Tabs

Lamb Of God Chords & Tabs

Version: 1 Type: Tab 0 ratings
1 star 2 stars 3 stars 4 stars 5 stars
comments

Blood Of The Scribe Tab

   
Arist: Lamb Of God
Album: Ashes Of The Wake
Track: Blood Of The Scribe
Copyright Prosthetic Records 2004
Tuning: Drop D
tabbed by:John Ryals

	* Pinch Harmonic
	~ Vibrato
	h Hammer On
	p Pull Off
	. Palm Mute
	/ Slide Up
	\ Slide Down
	b Bend
	r Release


	Guitar 1 & 2 (0:00-0:26)
e|----------------------------------------------------------|
B|----------------------------------------------------------|
G|----------------------------------------------------------|
D|-------------7-----5-----------6--------------------------|
A|-------5-----------------7-----------8--------------------|
D|-0-000---0-0---0-0---0-0---0-0---0-0---0-0-3-5-7----------|
   . ...   . .   . .   . .   . .   . .   . .

e|----------------------------------------------------------|
B|----------------------------------------------------------|
G|----------------------------------------------------------|
D|-------------7-----5-----------6-----------3---1----------|
A|-------5-----------------7--------------------------------|
D|-0-000---0-0---0-0---0-0---0-0---0-0-1-111---1------------|
   . ...   . .   . .   . .   . .   . . . ...   .

e|----------------------------------------------------------|
B|----------------------------------------------------------|
G|----------------------------------------------------------|
D|-------------7-----5-----------6--------------------------|
A|-------5-----------------7-----------8--------------------|
D|-0-000---0-0---0-0---0-0---0-0---0-0---0-0-3-5-7----------|
   . ...   . .   . .   . .   . .   . .   . .

e|----------------------------------------------------------|
B|----------------------------------------------------------|
G|----------------------------------------------------------|
D|-------------7-----5--------------------------------------|
A|-------5-------------------8-8-------7-7-10---------------|
D|-0-000---0-0---0-0---0-0-0-8-8---0-0-7-7-10---------------|
   . ...   . .   . .   . . .        . .

e|----------------------------------------------------------|
B|----------------------------------------------------------|
G|----------------------------------------------------------|
D|-------------7-----5-----------6--------------------------|
A|-------5-----------------7-----------8--------------------|
D|-0-000---0-0---0-0---0-0---0-0---0-0---0-0-3-5-7----------|
   . ...   . .   . .   . .   . .   . .   . .

e|----------------------------------------------------------|
B|----------------------------------------------------------|
G|----------------------------------------------------------|
D|-------------7-----5-----------6-----------3---1----------|
A|-------5-----------------7--------------------------------|
D|-0-000---0-0---0-0---0-0---0-0---0-0-1-111---1------------|
   . ...   . .   . .   . .   . .   . . . ...   .

e|----------------------------------------------------------|
B|----------------------------------------------------------|
G|----------------------------------------------------------|
D|-------------7-----5-----------6--------------------------|
A|-------5-----------------7-----------8--------------------|
D|-0-000---0-0---0-0---0-0---0-0---0-0---0-0-3-5-7----------|
   . ...   . .   . .   . .   . .   . .   . .

e|----------------------------------------------------------|
B|----------------------------------------------------------|
G|----------------------------------------------------------|
D|-------------7-----5--------------------------------------|
A|-------5---------------------5~----8~---------------------|
D|-0-000---0-0---0-0---0-0--8-----7-------------------------|
   . ...   . .   . .   . .


	Guitar 1 & 2 (0:26-0:38)
e|----------------------------------------------------------|
B|----------------------------------------------------------|
G|----------------------------------------------------------|
D|----------------------------------------------------------|
A|-5-555-8-5-5-8-5-5-8h9p8p6-0-8-8--0-0-7-7-----------------|
D|---------------------------0-8-8--0-0-7-7-----------------|
   . ...   . .   . .         .      . .

e|----------------------------------------------------------|
B|----------------------------------------------------------|
G|----------------------------------------------------------|
D|----------------------------------------------------------|
A|-5-555-8-5-5-8-5-5-8h9p8p6-0-2-2--0-0-3-3-----------------|
D|---------------------------0-2-2--0-0-3-3-----------------|
   . ...   . .   . .         .      . .

e|----------------------------------------------------------|
B|----------------------------------------------------------|
G|----------------------------------------------------------|
D|---------------------------------------------------/5-4---|
A|-5-555-8-5-5-8-5-5-8h9p8p6-0-8-8--0-0-7-7------3-3------6-|
D|---------------------------0-8-8--0-0-7-7--0-0-3-3--------|
   . ...   . .   . .         .      . .      . .


	Guitar 1 & 2 (0:38-1:07)
e|----------------------------------------------------------|
B|----------------------------------------------------------|
G|----------------------------------------------------------|
D|----------------------------------------------------------|
A|----------------------------------------------------------|
D|-0-0-0-1p0-0-1p0-0-1p0-0-4p0-0-4p0-0-4p0-0-4p0-0-3p0-0----|

e|----------------------------------------------------------|
B|----------------------------------------------------------|
G|----------------------------------------------------------|
D|----------------------------------------------------------|
A|----------------------------------------------------------|
D|-3p0-0-3p0-0-3p0-0-3p0-0-3p0-0-3p0-4h6~-------------------|

e|----------------------------------------------------------|
B|----------------------------------------------------------|
G|----------------------------------------------------------|
D|----------------------------------------------------------|
A|----------------------------------------------------------|
D|-0-0-0-1p0-0-1p0-0-1p0-0-4p0-0-4p0-0-4p0-0-4p0-0-3p0-0----|

e|----------------------------------------------------------|
B|----------------------------------------------------------|
G|----------------------------------------------------------|
D|----------------------------------------------------------|
A|----------------------------------------------------------|
D|-3p0-0-3p0-0-3p0-0-3p0-0-3p0-0-3p0-4h6~-------------------|

e|----------------------------------------------------------|
B|----------------------------------------------------------|
G|----------------------------------------------------------|
D|----------------------------------------------------------|
A|----------------------------------------------------------|
D|-0-0-0-1p0-0-1p0-0-1p0-0-4p0-0-4p0-0-4p0-0-4p0-0-3p0-0----|

e|----------------------------------------------------------|
B|----------------------------------------------------------|
G|----------------------------------------------------------|
D|----------------------------------------------------------|
A|----------------------------------------------------------|
D|-3p0-0-3p0-0-3p0-0-3p0-0-3p0-0-3p0-4h6~-------------------|

e|----------------------------------------------------------|
B|----------------------------------------------------------|
G|----------------------------------------------------------|
D|----------------------------------------------------------|
A|----------------------------------------------------------|
D|-0-0-0-1p0-0-1p0-0-1p0-0-4p0-0-4p0-0-4p0-0-4p0-0-3p0-0----|

e|----------------------------------------------------------|
B|----------------------------------------------------------|
G|----------------------------------------------------------|
D|-------------------------------/5-4-----------------------|
A|------------------------------------6---------------------|
D|-3p0-0-3p0-0-3p0-0-0-0-0-0-0-0----------------------------|
                     . . . . . .


	Guitar 1 & 2 (1:07-1:35)
e|----------------------------------------------------------|
B|----------------------------------------------------------|
G|----------------------------------------------------------|
D|----------------------------------------------------------|
A|-0-0-0-1p0-0-0-0-0-0-1-0-5-0-4-0-0-0-0-0-0-0-1-0-5-0-4----|
D|-0-0-0-1p0-0-0-0-0-0-1-0-5-0-4-0-0-0-0-0-0-0-1-0-5-0-4----|
   . . .     . . . . .   .   .   . . . . . . .   .   .

e|----------------------------------------------------------|
B|----------------------------------------------------------|
G|----------------------------------------------------------|
D|----------------------------------------------------------|
A|-0-0-0-0-0-0-0-1-0-5-0-4-0-0-0-------1~-------------------|
D|-0-0-0-0-0-0-0-1-0-5-0-4-0-0-0-0-2-3----------------------|
   . . . . . . .   .   .   . . . . . .

e|----------------------------------------------------------|
B|----------------------------------------------------------|
G|----------------------------------------------------------|
D|----------------------------------------------------------|
A|-0-0-0-1p0-0-0-0-0-0-1-0-5-0-4-0-0-0-0-0-0-0-1-0-5-0-4----|
D|-0-0-0-1p0-0-0-0-0-0-1-0-5-0-4-0-0-0-0-0-0-0-1-0-5-0-4----|
   . . .     . . . . .   .   .   . . . . . . .   .   .

e|----------------------------------------------------------|
B|----------------------------------------------------------|
G|----------------------------------------------------------|
D|----------------------------------------------------------|
A|-0-0-0-0-0-0-0-1-0-5-0-4-0-0-0-------1~-------------------|
D|-0-0-0-0-0-0-0-1-0-5-0-4-0-0-0-0-2-3----------------------|
   . . . . . . .   .   .   . . . . . .

e|----------------------------------------------------------|
B|----------------------------------------------------------|
G|----------------------------------------------------------|
D|----------------------------------------------------------|
A|-2-2-2-3p2-2-2-2-2-2-----------2-2-2-2-2-2-2--------------|
D|-2-2-2-3p2-2-2-2-2-2-3p2-7p2-6-2-2-2-2-2-2-2-3p2-7p2-6----|
   . . .     . . . . .           . . . . . . .

e|----------------------------------------------------------|
B|----------------------------------------------------------|
G|----------------------------------------------------------|
D|----------------------------------------------------------|
A|-2-2-2-2-2-2-2-----------2-2-2----------------------------|
D|-2-2-2-2-2-2-2-3p2-7p2-6-2-2-2-2h3p2-1~-------------------|
   . . . . . . .           . . .

e|----------------------------------------------------------|
B|----------------------------------------------------------|
G|----------------------------------------------------------|
D|----------------------------------------------------------|
A|-0-0-0-1p0-0-0-0-0-0-1-0-5-0-4-0-0-0-0-0-0-0-1-0-5-0-4----|
D|-0-0-0-1p0-0-0-0-0-0-1-0-5-0-4-0-0-0-0-0-0-0-1-0-5-0-4----|
   . . .     . . . . .   .   .   . . . . . . .   .   .

e|----------------------------------------------------------|
B|----------------------------------------------------------|
G|----------------------------------------------------------|
D|----------------------------------------------------------|
A|-0-0-0-0-0-0-0-1-0-5-0-4-0-0-0-------1*~------------------|
D|-0-0-0-0-0-0-0-1-0-5-0-4-0-0-0-0-2-3----------------------|
   . . . . . . .   .   .   . . . . . .


	Guitar 1 & 2 (1:35-2:04)
e|----------------------------------------------------------|
B|---------------------------------------------5h6p5--------|
G|-------9h10---7h9---------10p9---9p7-----6-7-------7------|
D|----------------------------------------------------------|
A|-0--------------------------------------------------------|
D|-0----------0-----0-0-000------0-----0-0------------------|
              .     . . ...      .     . . . .

e|----------------------------------------------------------|
B|----------------------------------------------------------|
G|-------9h10---7h9-----------------------------------------|
D|--------------------------8p7---7\5--------6h7p6----------|
A|---------------------------------------7-8-------7--------|
D|-8-888------8-----8-8-888-----8------8--------------------|
   . ...      .     . . ...     .      . . .

e|----------------------------------------------------------|
B|---------------------------------------------5h6p5--------|
G|-------9h10---7h9---------10p9---9p7-----6-7-------7------|
D|----------------------------------------------------------|
A|----------------------------------------------------------|
D|-0-000------0-----0-0-000------0-----0-0------------------|
   . ...      .     . . ...      .     . . . .

e|----------------------------------------------------------|
B|----------------------------------------------------------|
G|-------9h10---7h9-----------------------------------------|
D|--------------------------8p7---7\5---3-------------------|
A|--------------------------------------1-3-1---------------|
D|-8-888------8-----8-8-888-----8---------3-1---------------|
   . ...      .     . . ...     .         . .

e|----------------------------------------------------------|
B|---------------------------------------------5h6p5--------|
G|-------9h10---7h9---------10p9---9p7-----6-7-------7------|
D|----------------------------------------------------------|
A|-0--------------------------------------------------------|
D|-0----------0-----0-0-000------0-----0-0------------------|
              .     . . ...      .     . . . .

e|----------------------------------------------------------|
B|----------------------------------------------------------|
G|-------9h10---7h9-----------------------------------------|
D|--------------------------8p7---7\5--------6h7p6----------|
A|---------------------------------------7-8-------7--------|
D|-8-888------8-----8-8-888-----8------8--------------------|
   . ...      .     . . ...     .      . . .

e|----------------------------------------------------------|
B|---------------------------------------------5h6p5--------|
G|-------9h10---7h9---------10p9---9p7-----6-7-------7------|
D|----------------------------------------------------------|
A|----------------------------------------------------------|
D|-0-000------0-----0-0-000------0-----0-0------------------|
   . ...      .     . . ...      .     . . . .

e|----------------------------------------------------------|
B|----------------------------------------------------------|
G|-------9h10---7h9-----------------------------------------|
D|--------------------------8p7---7\5---3-------------------|
A|--------------------------------------1-3-1---------------|
D|-8-888------8-----8-8-888-----8---------3-1---------------|
   . ...      .     . . ...     .         . .


	Guitar 1 & 2 (2:04-2:33)
e|----------------------------------------------------------|
B|----------------------------------------------------------|
G|----------------------------------------------------------|
D|-------------7-----5-----------6--------------------------|
A|-------5-----------------7-----------8--------------------|
D|-0-000---0-0---0-0---0-0---0-0---0-0---0-0-3-5-7----------|
   . ...   . .   . .   . .   . .   . .   . .

e|----------------------------------------------------------|
B|----------------------------------------------------------|
G|----------------------------------------------------------|
D|-----------7--8-------------------------------------------|
A|--------7---------------5---------------------------------|
D|-5-555-----------3-333------2-3-2-5b*-3-------------------|
   . ...           . ...      . . .
[ Tab from: http://www.guitartabs.cc/tabs/l/lamb_of_god/blood_of_the_scribe_tab.html ]
e|----------------------------------------------------------|
B|----------------------------------------------------------|
G|----------------------------------------------------------|
D|-------------7-----5-----------6--------------------------|
A|-------5-----------------7-----------8--------------------|
D|-0-000---0-0---0-0---0-0---0-0---0-0---0-0-3-5-7----------|
   . ...   . .   . .   . .   . .   . .   . .

e|----------------------------------------------------------|
B|----------------------------------------------------------|
G|----------------------------------------------------------|
D|-----------7--8-------------------------------------------|
A|--------7---------------5---------------------------------|
D|-5-555-----------3-333------2-3-2-5b*-3-------------------|
   . ...           . ...      . . .

e|----------------------------------------------------------|
B|----------------------------------------------------------|
G|----------------------------------------------------------|
D|-------------7-----5-----------6--------------------------|
A|-------5-----------------7-----------8--------------------|
D|-0-000---0-0---0-0---0-0---0-0---0-0---0-0-3-5-7----------|
   . ...   . .   . .   . .   . .   . .   . .

e|----------------------------------------------------------|
B|----------------------------------------------------------|
G|----------------------------------------------------------|
D|-----------7--8-------------------------------------------|
A|--------7---------------5---------------------------------|
D|-5-555-----------3-333------2-3-2-5b*-3-------------------|
   . ...           . ...      . . .

e|----------------------------------------------------------|
B|----------------------------------------------------------|
G|----------------------------------------------------------|
D|-------------7-----5-----------6--------------------------|
A|-------5-----------------7-----------8--------------------|
D|-0-000---0-0---0-0---0-0---0-0---0-0---0-0-3-5-7----------|
   . ...   . .   . .   . .   . .   . .   . .

e|----------------------------------------------------------|
B|----------------------------------------------------------|
G|----------------------------------------------------------|
D|-----------7--8-------------------------------------------|
A|--------7---------------5---------3*~---------------------|
D|-5-555-----------3-333------2-3-2-------------------------|
   . ...           . ...      . . .


	Guitar 1 & 2 (2:33-3:01)
e|----------------------------------------------------------|
B|---------------------------------------------5h6p5--------|
G|-------9h10---7h9---------10p9---9p7-----6-7-------7------|
D|----------------------------------------------------------|
A|-0--------------------------------------------------------|
D|-0----------0-----0-0-000------0-----0-0------------------|
              .     . . ...      .     . . . .

e|----------------------------------------------------------|
B|----------------------------------------------------------|
G|-------9h10---7h9-----------------------------------------|
D|--------------------------8p7---7\5--------6h7p6----------|
A|---------------------------------------7-8-------7--------|
D|-8-888------8-----8-8-888-----8------8--------------------|
   . ...      .     . . ...     .      . . .

e|----------------------------------------------------------|
B|---------------------------------------------5h6p5--------|
G|-------9h10---7h9---------10p9---9p7-----6-7-------7------|
D|----------------------------------------------------------|
A|----------------------------------------------------------|
D|-0-000------0-----0-0-000------0-----0-0------------------|
   . ...      .     . . ...      .     . . . .

e|----------------------------------------------------------|
B|----------------------------------------------------------|
G|-------9h10---7h9-----------------------------------------|
D|--------------------------8p7---7\5---3-------------------|
A|--------------------------------------1-3-1---------------|
D|-8-888------8-----8-8-888-----8---------3-1---------------|
   . ...      .     . . ...     .         . .

e|----------------------------------------------------------|
B|---------------------------------------------5h6p5--------|
G|-------9h10---7h9---------10p9---9p7-----6-7-------7------|
D|----------------------------------------------------------|
A|-0--------------------------------------------------------|
D|-0----------0-----0-0-000------0-----0-0------------------|
              .     . . ...      .     . . . .

e|----------------------------------------------------------|
B|----------------------------------------------------------|
G|-------9h10---7h9-----------------------------------------|
D|--------------------------8p7---7\5--------6h7p6----------|
A|---------------------------------------7-8-------7--------|
D|-8-888------8-----8-8-888-----8------8--------------------|
   . ...      .     . . ...     .      . . .

e|----------------------------------------------------------|
B|---------------------------------------------5h6p5--------|
G|-------9h10---7h9---------10p9---9p7-----6-7-------7------|
D|----------------------------------------------------------|
A|----------------------------------------------------------|
D|-0-000------0-----0-0-000------0-----0-0------------------|
   . ...      .     . . ...      .     . . . .

e|----------------------------------------------------------|
B|----------------------------------------------------------|
G|-------9h10---7h9-----------------------------------------|
D|--------------------------8p7---7\5---3-------------------|
A|--------------------------------------1-3-1---------------|
D|-8-888------8-----8-8-888-----8---------3-1---------------|
   . ...      .     . . ...     .         . .


	Guitar 1 & 2 (3:01-3:31)
e|----------------------------------------------------------|
B|----------------------------------------------------------|
G|----------------------------------------------------------|
D|----------------------------------------------------------|
A|----------------------------------------------------------|
D|-0-0-0-1p0-0-1p0-0-1p0-0-4p0-0-4p0-0-4p0-0-4p0-0-3p0-0----|

e|----------------------------------------------------------|
B|----------------------------------------------------------|
G|----------------------------------------------------------|
D|----------------------------------------------------------|
A|----------------------------------------------------------|
D|-3p0-0-3p0-0-3p0-0-3p0-0-3p0-0-3p0-4h6~-------------------|

e|----------------------------------------------------------|
B|----------------------------------------------------------|
G|----------------------------------------------------------|
D|----------------------------------------------------------|
A|----------------------------------------------------------|
D|-0-0-0-1p0-0-1p0-0-1p0-0-4p0-0-4p0-0-4p0-0-4p0-0-3p0-0----|

e|----------------------------------------------------------|
B|----------------------------------------------------------|
G|----------------------------------------------------------|
D|----------------------------------------------------------|
A|----------------------------------------------------------|
D|-3p0-0-3p0-0-3p0-0-3p0-0-3p0-0-3p0-4h6~-------------------|

e|----------------------------------------------------------|
B|----------------------------------------------------------|
G|----------------------------------------------------------|
D|----------------------------------------------------------|
A|----------------------------------------------------------|
D|-0-0-0-1-0-0-1-0-0-1-0-0-4-0-0-4-0-0-4-0-0-4-0-0-3-0-0----|
   . . . . . . . . . . . . . . . . . . . . . . . . . . .

e|----------------------------------------------------------|
B|----------------------------------------------------------|
G|----------------------------------------------------------|
D|----------------------------------------------------------|
A|----------------------------------------------------------|
D|-3-0-0-3-0-0-3-0-0-3-0-0-3-0-0-3-0-4-6*~------------------|
   . . . . . . . . . . . . . . . . . .

e|----------------------------------------------------------|
B|----------------------------------------------------------|
G|----------------------------------------------------------|
D|----------------------------------------------------------|
A|----------------------------------------------------------|
D|-0-0-0-1-0-0-1-0-0-1-0-0-4-0-0-4-0-0-4-0-0-4-0-0-3-0-0----|
   . . . . . . . . . . . . . . . . . . . . . . . . . . .

e|----------------------------------------------------------|
B|----------------------------------------------------------|
G|-------------------------7--------------------------------|
D|-------------------0---7---8-7----------------------------|
A|---------------------8-------------1----------------------|
D|-3-0-0-3-0-0-3-0-0--------------00---3~-------------------|
   . . . . . . . . .   . .        ..


	Guitar 1 & 2 (3:31-3:56)
e|----------------------------------------------------------|
B|------------11-------------------------10-----------------|
G|----------------------------------------------------------|
D|----------------------------------------------------------|
A|-0-0-0------------------0-0-0-0-0-------------------------|
D|-0-0-0----0-------------0-0-0-0-0----0--------------------|
   . .      .             . . . .      .

e|----------------------------------------------------------|
B|----------------------------------------------------------|
G|----------------------------------------------------------|
D|----------------------------------------------------------|
A|-0-1-0-1-0-1-0-1-0-1-0-1-0-1-0-1-0-1-0-4------------------|
D|-0-1-0-1-0-1-0-1-0-1-0-1-0-1-0-1-0-1-0-4------------------|
   . . . . . . . . . . . . . . . . . . .

e|----------------------------------------------------------|
B|------------11-------------------------10-----------------|
G|----------------------------------------------------------|
D|----------------------------------------------------------|
A|-0-0-0------------------0-0-0-0-0-------------------------|
D|-0-0-0----0-------------0-0-0-0-0----0--------------------|
   . .      .             . . . .      .

e|----------------------------------------------------------|
B|----------------------------------------------------------|
G|----------------------------------------------------------|
D|---------------------------------------8-5----------------|
A|-0-1-0-1-0-1-0-1-0-1-0-1-0-1-0-1-0-1-0-6-3----------------|
D|-0-1-0-1-0-1-0-1-0-1-0-1-0-1-0-1-0-1-0--------------------|
   . . . . . . . . . . . . . . . . . . .

e|----------------------------------------------------------|
B|------------11-------------------------10-----------------|
G|----------------------------------------------------------|
D|----------------------------------------------------------|
A|-0-0-0------------------0-0-0-0-0-------------------------|
D|-0-0-0----0-------------0-0-0-0-0----0--------------------|
   . .      .             . . . .      .

e|----------------------------------------------------------|
B|----------------------------------------------------------|
G|----------------------------------------------------------|
D|----------------------------------------------------------|
A|-0-1-0-1-0-1-0-1-0-1-0-1-0-1-0-1-0-1-0-4------------------|
D|-0-1-0-1-0-1-0-1-0-1-0-1-0-1-0-1-0-1-0-4------------------|
   . . . . . . . . . . . . . . . . . . .

e|----------------------------------------------------------|
B|------------11-------------------------10-----------------|
G|----------------------------------------------------------|
D|----------------------------------------------------------|
A|-0-0-0------------------0-0-0-0-0-------------------------|
D|-0-0-0----0-------------0-0-0-0-0----0--------------------|
   . .      .             . . . .      .

e|----------------------------------------------------------|
B|----------------------------------------------------------|
G|----------------------------------------------------------|
D|---------------------------------------8-5----------------|
A|-0-1-0-1-0-1-0-1-0-1-0-1-0-1-0-1-0-1-0-6-3----------------|
D|-0-1-0-1-0-1-0-1-0-1-0-1-0-1-0-1-0-1-0--------------------|
   . . . . . . . . . . . . . . . . . . .


	Guitar 1 & 2 (3:56-4:23) END
e|----------------------------------------------------------|
B|----------------------------------------------------------|
G|----------------------------------------------------------|
D|----------------------------------------------------------|
A|----------------------------------------------------------|
D|-0-1-0-1-0-1-0-1-0-1-0-1-0-1-0-1-0-1-0-4------------------|

e|----------------------------------------------------------|
B|----------------------------------------------------------|
G|----------------------------------------------------------|
D|---------------------------------------8-5----------------|
A|---------------------------------------6-3----------------|
D|-0-1-0-1-0-1-0-1-0-1-0-1-0-1-0-1-0-1-0--------------------|

e|----------------------------------------------------------|
B|----------------------------------------------------------|
G|----------------------------------------------------------|
D|----------------------------------------------------------|
A|----------------------------------------------------------|
D|-0-1-0-1-0-1-0-1-0-1-0-1-0-1-0-1-0-1-0-4------------------|

e|----------------------------------------------------------|
B|----------------------------------------------------------|
G|----------------------------------------------------------|
D|---------------------------------------8-5----------------|
A|---------------------------------------6-3----------------|
D|-0-1-0-1-0-1-0-1-0-1-0-1-0-1-0-1-0-1-0--------------------|

e|----------------------------------------------------------|
B|----------------------------------------------------------|
G|----------------------------------------------------------|
D|----------------------------------------------------------|
A|-0-1-0-1-0-1-0-1-0-1-0-1-0-1-0-1-0-1-0-4------------------|
D|-0-1-0-1-0-1-0-1-0-1-0-1-0-1-0-1-0-1-0-4------------------|
   . . . . . . . . . . . . . . . . . . .

e|----------------------------------------------------------|
B|----------------------------------------------------------|
G|----------------------------------------------------------|
D|---------------------------------------8-5----------------|
A|-0-1-0-1-0-1-0-1-0-1-0-1-0-1-0-1-0-1-0-6-3----------------|
D|-0-1-0-1-0-1-0-1-0-1-0-1-0-1-0-1-0-1-0--------------------|
   . . . . . . . . . . . . . . . . . . .

e|----------------------------------------------------------|
B|----------------------------------------------------------|
G|----------------------------------------------------------|
D|----------------------------------------------------------|
A|-0-1-0-1-0-1-0-1-0-1-0-1-0-1-0-1-0-1-0-4------------------|
D|-0-1-0-1-0-1-0-1-0-1-0-1-0-1-0-1-0-1-0-4------------------|
   . . . . . . . . . . . . . . . . . . .

e|----------------------------------------------------------|
B|----------------------------------------------------------|
G|----------------------------------------------------------|
D|---------------------------------------8-5----------------|
A|-0-1-0-1-0-1-0-1-0-1-0-1-0-1-0-1-0-1-0-6-3----------------|
D|-0-1-0-1-0-1-0-1-0-1-0-1-0-1-0-1-0-1-0--------------------|
   . . . . . . . . . . . . . . . . . . .
Comments