Lamb Of God - Black Label Chords & Tabs

 

Black Label Chords & Tabs

Lamb Of God Chords & Tabs

Version: 2 Type: Tab 0 ratings
1 star 2 stars 3 stars 4 stars 5 stars
comments

Black Label Tab

   
Band: Lamb of God
Album: New American Gospel
Song: Black Label

Key:
. - palm mute     h - hammer on
x - Stuccato      ~ - vibrato
p - pull off

Tuning: Drop D - D A D G B D (The high D doesn't matter for this song,
but I believe "Lamb of God" uses it)

I realize that i already have a "Black Label" tab posted, but i messed up
a tiny part. I just forgot to make a power chord a power chord
(forgot to add a 0 on the a string). not a big deal but its pissing me off.

Intro 1: played 4 times (this is played 4 times and Intro 2 is played 8 times)
  Guitar 1:
||-------------------------------------||
||-------------------------------------||
||-------------------------------------||
||-------------------------------------||
||-------------------------------------||
||---0-0-0-0-1p0-0-3p0-4p0-3p0--0-1p0--||
|
|
| Guitar 2:
||-------------------------------------||
||-------------------------------------||
||-------------------------------------||
||-------------------------------------||
||---0-0-0-----------------------------||
||---0-0-0-----------------------------||
     . . .

  Guitar 1:
||-------------------------------------||
||-------------------------------------||
||-------------------------------------||
||-------------------------------------||
||-------------------------------------||
||---0-0-0-0-1p0-0-3p0-4p0-3p0--0-1p0--||
|
|
| Guitar 2:
||-------------------------------------||
||-------------------------------------||
||-------------------------------------||
||-------------------------------------||(Yes the timing
||--0--0-0-----------------------------||is supposed to
||--0--0-0-----------------------------||be like that)
    .  . .

Intro 2:  played 8 times
  Both Guitars
||-------------------------------------||
||-------------------------------------||
||-------------------------------------||
||-------------------------------------||
||-------------------------------------||
||---0-0-0-0-1p0-0-3p0-4p0-3p0--0-1p0--||


Riff A:
  Both Guitars
||-------------------------------------||
||-------------------------------------||
||-------------------------------------||
||-------------------------------------||
||---0-0-0-0-1-0-0-3-0-4-0-3-0---5-6---||
||---0-0-0-0-1-0-0-3-0-4-0-3-0-6-------||
     . . . .   . .   .   .   . .

||-------------------------------------||
||-------------------------------------||
||-------------------------------------||
||-------------------------------------||
||---0-0-0-0-1-0-0-3-0-4-0-3-0-8-7-6---||
||---0-0-0-0-1-0-0-3-0-4-0-3-0---------||
     . . . .   . .   .   .   .
   PLAY THE ABOVE RIFF A PART 3 TIMES THEN PLAY....

||-------------------------------------||
||-------------------------------------||
||-------------------------------------||
||-------------------------------------||
||---0-0-0-0-1-0-0-3-0-4-0-3-0---5-6---||
||---0-0-0-0-1-0-0-3-0-4-0-3-0-6-------||
     . . . .   . .   .   .   . .

||-------------------------------------||
||-------------------------------------||
||-------------------------------------||
||-------------------------------2--3--||
||---0-0-0-0-1-0-0-3-0-4-0-0--1--0--1--|| NOTE: i'm not quite sure about
||---0-0-0-0-1-0-0-3-0-4-0-0--1--------|| the last three chords to that,
     . . . .   . .   .   . .              it's kinda hard to hear on the
       THIS HAS BEEN RIFF A               album.

Chorus:
  Both Guitars
||--------------------------------------------------------------||
||--------------------------------------------------------------||
||--------------------------------------------------------------||
||------------------------------------9-10-9-------7-8-7--------||
||----------------------------0-0-0-0-7-8--7-0-0-0-5-6-5--3--2--||
||--1-0-3~--1-0-3~--1-0-1-3-4-0-0-0-0--------0-0-0--------3--2--||
                              . . . .        . . .        .  .
   PLAY THE ABOVE CHORUS PART 3 TIMES, THEN PLAY...

||----------------------------||
||----------------------------||
||----------------------------||
||----------------------------||NOTE: This goes IMMEDIATELY
||----------------------------||into the pre-breakdown
||--1-0-3~--1-0-3~--1-0-1-3-4-||
   THIS HAS BEEN THE CHORUS
[ Tab from: http://www.guitartabs.cc/tabs/l/lamb_of_god/black_label_tab_ver_2.html ]
Pre-Breakdown:
  Guitar 1:
||---------------------------------||---------------------------------||
||---------------------------------||---------------------------------||
||---------------------------------||---------------------------------||
||---------------------------------||---------------------------------||
||-0-0-0-0-7h8-7-0-0-0-5h6-5--3--3-||-0-0-0-0-7h8-7-0-0-0-5h6-5--3--2-||
||-0-0-0-0-------0-0-0--------3--2-||-0-0-0-0-------0-0-0--------3--2-||
|  . . . .       . . .        .  .    . . . .       . . .        .  .
|
| Guitar 2:  (NOTE: kind of hard to hear the timing for guitar 2's part)
||---------------------------------||---------------------------------||
||--3------------------------------||--5------------------------------||
||--2------------------------------||--4------------------------------||
||--0------------------------------||--2------------------------------||
||--0------------------------------||--2------------------------------||
||--0------------------------------||--2------------------------------||

  Guitar 1:
||---------------------------------||---------------------------------||
||---------------------------------||---------------------------------||
||---------------------------------||---------------------------------||
||---------------------------------||---------------------------------||
||-0-0-0-0-7h8-7-0-0-0-5h6-5--3--3-||-0-0-0-0-7h8-7-0-0-0-5h6-5--3--2-||
||-0-0-0-0-------0-0-0--------3--2-||-0-0-0-0-------0-0-0--------3--2-||
|  . . . .       . . .        .  .    . . . .       . . .        .  .
|
| Guitar 2:
||---------------------------------||---------------------------------||
||--8------------------------------||--9------------------------------||
||--7------------------------------||--8------------------------------||
||--5------------------------------||--6------------------------------||
||--5------------------------------||--6------------------------------||
||--5------------------------------||--6------------------------------||

  Guitar 1:
||---------------------------------||---------------------------------||
||---------------------------------||---------------------------------||
||---------------------------------||---------------------------------||
||---------6h7-6-------3h5-3-------||---------6h7-6-------3h5-3-------||
||-0-0-0-0-------0-0-0--------3--3-||-0-0-0-0-------0-0-0--------3--2-||
||-0-0-0-0-------0-0-0--------3--2-||-0-0-0-0-------0-0-0--------3--2-||
|  . . . .       . . .        .  .    . . . .       . . .        .  .
|
| Guitar 2:
||---------------------------------||---------------------------------||
||--3------------------------------||--5------------------------------||
||--2------------------------------||--4------------------------------||
||--0------------------------------||--2------------------------------||
||--0------------------------------||--2------------------------------||
||--0------------------------------||--2------------------------------||

  Guitar 1:
||---------------------------------||---------------------------------||
||---------------------------------||---------------------------------||
||---------------------------------||---------------------------------||
||---------6h7-6-------3h5-3-------||---------6h7-6-------3h5-3-------||
||-0-0-0-0-------0-0-0--------3--3-||-0-0-0-0-------0-0-0--------3--2-||
||-0-0-0-0-------0-0-0--------3--2-||-0-0-0-0-------0-0-0--------3--2-||
|  . . . .       . . .        .  .    . . . .       . . .        .  .
|
| Guitar 2:
||---------------------------------||---------------------------------||
||--8------------------------------||--9------------------------------||
||--7------------------------------||--8------------------------------||
||--5------------------------------||--6------------------------------||
||--5------------------------------||--6------------------------------||
||--5------------------------------||--6------------------------------||

Breakdown 1:
  Both Guitars
||-----------------------------------------------------------------||
||-----------------------------------------------------------------||
||-----------------------------------------------------------------||
||-----------------------------------------------------------------||
||-000-000-000-000-000-000-000-000-000-000-000-000-000-000-000-000-||
||-000-000-000-000-000-000-000-000-000-000-000-000-000-000-000-000-||
   ... ... ... ... ... ... ... ... ... ... ... ... ... ... ... ...

Breakdown 2:
  Both Guitars
||---------------------------------------------------||NOTE: The first of the
||---------------------------------------------------||3 stuccatos in each
||---------------------------------------------------||succession are not
||---------------------------------------------------||palm mutes. They look
||-0-0-0-00000-0-0-00000-0-0-00000-0-0-00000-0-0-0000||like it because they
||-0-0-0-00000-0-0-00000-0-0-00000-0-0-00000-0-0-0000||played really fast
   x x x ....x x x ....x x x ....x x x ....x x x ....  after the palm mutes.
        PLAY "BREAKDOWN 2" three MORE TIMES


      PLAY THE CHORUS 3 TIMES. THEN PLAY...

||------------------------------||
||------------------------------||
||------------------------------||
||------------------------------||
||----------------------------0-||
||--1-0-3~--1-0-3~--1-0-1-3-4-0-|| pause
                              x

   PLAY RIFF A, THEN PLAY THE PRE-BREAKDOWN, THEN PLAY...

||-----------------||
||-----------------||
||-----------------||
||-0---------------||
||-0---------------||
||-0---------------||
  LET RING FOR A LITTLE BIT

Outro:
  Both Guitars:
||-------------------------||
||-------------------------||
||-------8-8-8---------7-7-||
||-------7-7-7---6-6---7-7-||
||-0-0-0-6-6-6-0-6-6-0-5-5-||
||-0-0-0-------0-6-6-0-----||
   . . .       .     .
Comments