Lake Of Tears - Sweetwater Chords & Tabs

 

Sweetwater Chords & Tabs

Lake Of Tears Chords & Tabs

Version: 1 Type: Bass Tab 0 ratings
1 star 2 stars 3 stars 4 stars 5 stars
comments

Sweetwater Bass Tab

Lake Of Tears - Sweetwater

bass starts later...and its standard tuning

|------------------|------------------|
|-----2--------2---|------------------|
|-0-0---0--0-0---0-|-----3--------3---|
|------------------|-1-1---1--1-1---1-|

[ Tab from: http://www.guitartabs.cc/tabs/l/lake_of_tears/sweetwater_btab.html ]
|------------------|------------------|
|-----5--------5---|------------------|
|-3-3---3--3-3---3-|-----5--------5---|
|------------------|-3-3---3--3-3---3-|


|------------------|------------------|
|-----2--------2---|------------------|
|-0-0---0--0-0---0-|-----3--------3---|
|------------------|-1-1---1--1-1---1-|


|------------------|------------------|
|-----5--------5---|------------------|
|-3-3---3--3-3---3-|-----5--------5---|
|------------------|-3-3---3--3-3---3-|
Comments