Lake Of Tears - Raven Land Chords & Tabs

 

Raven Land Chords & Tabs

Lake Of Tears Chords & Tabs

Version: 2 Type: Tab 0 ratings
1 star 2 stars 3 stars 4 stars 5 stars
comments

Raven Land Tab

e-------------------------------------------------------------------|
B-------------------------------------------------------------------|
G-----------------------------------------7--5--10/9--7--8--7--8--7-|
D--5--5/7--8--8--7/3--3--3/5--5---5/7--8----------------------------|
A-------------------------------------------------------------------|
E-------------------------------------------------------------------|
[ Tab from: http://www.guitartabs.cc/tabs/l/lake_of_tears/raven_land_tab_ver_2.html ]
e-------------------------------------------------------------------|
B-------------------------------------------------------------------|
G-------------------------------------------------------------------|
D-8-8-8-8-8-7--7h8p7-5-------------------5--8--7--------------------|
A-----------------------6--5h6p5--3/5------------6--5--3--5--6--5---|
E-------------------------------------------------------------------|

e-------------------------------------------------------------------|
B-------------------------------------------------------------------|
G----------------------7--8-----------------------------------------|
D----------------7--5---------5---5/7--8--7h8--10--8--7--8p7--5-----|
A-3--5--6--8--5-----------------------------------------------------|
E-------------------------------------------------------------------|

e---------------------------------|
B---------------------------------|
G----------------------------7----|
D------7--8--8/7--5--8/7--5-----5-|
A-8-8-----------------------------|
E---------------------------------|


The ending sounds a bit weird. If you have a better version, please mail me.
 Enjoy!
Comments