Lain - Duvet Chords & Tabs

 

Duvet Chords & Tabs

Lain Chords & Tabs

Version: 2 Type: Tab 0 ratings
1 star 2 stars 3 stars 4 stars 5 stars
comments

Duvet Tab

Tabbed by: Carlos Gonzalez Ramirez (maki_saki@yahoo.com)

Listen to the song to get the timing.

--------------------------------------------------
Simbols:                                         -
~ = Let that note ring (no more than a second)   -
2X = Play that part twice                        -
/  = Make a slide from one fret to another       -
                                                 -
--------------------------------------------------

PART ONE

e|---------------------------------------------------------------------------|
B|3-2-0-2-3-5-7-0~--3-2-0-2-3-5-7-5-7-5-3-2---3-2-0-2-3-5-7-0~--3-2-0-2-3-5-7|
G|---------------------------------------------------------------------------|
D|---------------------------------------------------------------------------|
A|---------------------------------------------------------------------------|
E|---------------------------------------------------------------------------|
  And you don?t
  seem to understand...
[ Tab from: http://www.guitartabs.cc/tabs/l/lain/duvet_tab_ver_2.html ]
e|-------------------------------------------5---------------------------|
B|5-7~5-3-2--0-7-7-5-7-5-7-5---0-7-7-7-7-5-7---5----3-2-0-2-3-5-0-7-5-3-2|
G|-----------------------------------------------------------------------|
D|-----------------------------------------------------------------------|
A|-----------------------------------------------------------------------|
E|-----------------------------------------------------------------------|
                                         Repeat everything up to here twice

PART TWO

e|-7-5-0-0-0--7-5-0-0-0--7-5-0-0-0~----0-0|
B|-----------------------------------3----|
G|----------------------------------------|
D|----------------------------------------|
A|----------------------------------------|
E|----------------------------------------|
  Play this the first time

PART THREE

e|-7-5-0-0-0--7-5-0-0-0--7-5-0-0-0-2-------5-2|
B|-----------------------------------3-3-5----|
G|--------------------------------------------|  2X
D|--------------------------------------------|
A|--------------------------------------------|
E|--------------------------------------------|
  Play this the second time

SOLO

e|-5-5-5-5-10-9-7-9-10/12-12-14-12-10-9-10-9-10-9-7-7----

e|-5-5-5-5-10-9-7-9-10/12-12-14-12-14-12-14-12-14-19-19--

  This is the solo part of the song.


ORDER:

Part one
Part two
Part one
Part three
-Solo-
Part three

That?s all, I hope you can understand it! (keep in mind that it?s my first TAB)
If you have questions, or something, write them to the adress at the top.
Comments