Laid Back - Baker Man Chords & Tabs

 

Baker Man Chords & Tabs

Laid Back Chords & Tabs

Version: 3 Type: Tab 0 ratings
1 star 2 stars 3 stars 4 stars 5 stars
comments

Baker Man Tab

   
Laid Back - Baker Man

Tabbed by: Vidar

Tuning: Standard

Ok, I know it isn't perfect but there is no solo for this
song here and this should give you an idea of how to play
the solo starting at about 2:23 min.
plz comment.
[ Tab from: http://www.guitartabs.cc/tabs/l/laid_back/baker_man_tab_ver_3.html ]
e|-------------------3p1-1\2\3---------------------1\2-4-| 
b|-7-7/6-4-3-4\5\7-------------5-3-5-4\5-3-1h3-6/5-------|
g|-------------------------------------------------------|
d|-------------------------------------------------------|
a|-------------------------------------------------------|
e|-------------------------------------------------------|

e--------------------------------------------------------|
b|-4/3-3/2-2-3-1-7p5-7-4-7-7-----------------------------|
g|-------------2-----------------------------------------|
d|-------------3-----------------------------------------|
a|-------------------------------------------------------|
e|-------------------------------------------------------|

| /  slide up
| \  slide down
| h  hammer-on
| p  pull-off
Comments