Lagwagon - Weak Chords & Tabs

 

Weak Chords & Tabs

Lagwagon Chords & Tabs

Version: 1 Type: Bass Tab 0 ratings
1 star 2 stars 3 stars 4 stars 5 stars
comments

Weak Bass Tab

Weak - Lagwagon (tabbed by: ryan b)

Riff A: (once)
A--7---------------------------------------
E----00000000-00000000-3-3-3333--2-2-2222--

Riff B: (once)
A--7-7-5-7-7-5-7-7-5-7-7----------------------
E-------------------------3-3-3333--2-2-2222--

Riff A: (once)

Riff C: (once)
A--x-x-7-x-x-7-x-x-5-x-x-----
E-------------------------3--

***rest for guitar***

Riff D: (once)
A--77777777---------------------77777777-----------9-9-9999--
E-----------3-3-3333--2-2-2222------------3-3-3333-----------

Riff A: (once)

Riff E: (once)
A--x-x-7-x-x-7-x-x-5-x-x-----------------------
E------------------------3--3-3-3333-2-2-2222--

Riff F: (3 times)
A--7777-------------9999--
E-------7777--3333--------
[ Tab from: http://www.guitartabs.cc/tabs/l/lagwagon/weak_btab.html ]
Riff G: (once)
A--x-x-7-x-x-7-x-x-3 x-x-2--
E---------------------------

***rest for guitar***

Riff D: (once)
Riff A: (once)
Riff E: (once)

Riff H: (once)
A--7--3--2----5--(pick slide/or use the side of your thumb nail)--
E-----------------------------------------------------------------

Riff I: (twice)
A--77777777-33333333-----------555555555--
E--------------------33333333-------------

***rest for guitar***

Riff D: (once)
Riff A: (once)
Riff E: (once)

Riff K: (once)
A--77-7-7-7--7-7-7--7-7-7--7-99-9-9-9--9-9-9--9-9-9--
E----------------------------------------------------

Riff L: (once)
A--9--10-10--10-10-10--10-10-10--10-10-10--10-12-12--12-12-12--12-10-10--10-9-9--
E--------------------------------------------------------------------------------

Riff K: (once)
Riff L: (once)
Riff E: (once) - Ending on E (open E string)

Comments