Lagwagon - Train Chords & Tabs

 

Train Chords & Tabs

Lagwagon Chords & Tabs

Version: 1 Type: Bass Tab 0 ratings
1 star 2 stars 3 stars 4 stars 5 stars
comments

Train Bass Tab

Song:train 
Band:lagwagon
Album:let's talk about feelings
tabbed by:vince / mu330guy@aol.is 




G:---------------------------------------------------------------
D:---------------------------------------------------------------
A:----2(8x)---------5(8x)------------------------------------
E:------------2(8x)---------5(8x)-3(8x)-5(8x)-2(6x)--


G:---------------------------------------------------------------
D:-----------------------------------5(8x)---------------------
A:--2(8x)-5(8x)-7(8x) --------------------------5---------
E:---------------------------5(8x)----------5(6x)------------


G:--------------------------------------------------------------
D:--------------------------------------------------------------
A:----2(8x)---------5(8x)-----------------------------------
E:------------2(8x)---------5(8x)-3(8x)-5(8x)-----------2x
[ Tab from: http://www.guitartabs.cc/tabs/l/lagwagon/train_btab.html ]
pre-chorus
G:---------------------------------------------------------------
D:----------------------------------5(8x)----------------------
A:-2(8x)-5(8x)-7(8x)-------------------0-2-4-5---------
E:--------------------------5(8x)------------------------------

chorus:
G:-----------------------------------------------------------------------------------------
D:----------2-4-7-(8x)----------5(6X)--4-2-0---------------------------------------
A:--5(6x)----------------2(8x)-------------------5(8X)-2(8X)------------------------
E:---------------------------------------------------------------------5(8X)-3--------------------

THE PART BEFORE THE VERSE STARTS AGIAN
G:---------------------------------------------------------------
D:--4-2------------4-2-----------------------------------------------
A:--------4-5-5-4----------------------------------------------------
E:---------------------------------------------------------------

THEN PLAY THE NORMAL PART ONE TIME THEN THE CHORUS. 
Comments