Lagwagon - Sleep Chords & Tabs

 

Sleep Chords & Tabs

Lagwagon Chords & Tabs

Version: 1 Type: Tab 0 ratings
1 star 2 stars 3 stars 4 stars 5 stars
comments

Sleep Tab

Tabbed by: Hippie Boy


Band: Lagwagon
Song: Sleep


      
      /=Slide up
      \=Slide down
     P.M.=Palm Mute


             Intro (Clean):
|--------------------------------------------------------------------------
|--------------------------------------------------------------------------
|---------------------------9---------------------------------------------
|----11-----7----9--------9----11--11----7---7-----9---9------------
|----11-----7----9--------7----11--11----7---7-----9---9------------
|-----9-----5----7---------------9---9-----5---5-----7---7------------

|-------------------------------------------------------------------------
|-------------------------------------------------------------------------
|----9---9-----------------------------------9---9----------------------
|----9---9---11--11----7---7-----9---9---9---9---11--11-10--10--
|----7---7---11--11----7---7-----9---9---7---7---11--11-10--10---
|--------------9---9-----5---5-----7---7-------------9---9---8---8---

|-------------------------------------------------------------------------
|-------------------------------------------------------------------------
|-----------------------------------(Growing feed Back)-----------
|----9---9---7---7---9---9-7-------------------------------------------
|----9---9---7---7---9---9-7-------------------------------------------
|----7---7---5---5---7---7-5-------------------------------------------



     Some more "intro" stuff except louder and distorted

|------------------------------------------------------------------------
|-------------------------------------------------------------------------
|---9------------------------------9---9---------------------------------
|---9---11-11---7---7--9---9---9---9---11-11---7---7--9---9-----
|---7---11-11---7---7--9---9---7---7---11-11---7---7--9---9-----
|--------9---9---5---5---7---7------------9---9---5---5---7---7-----

|--------------------------------------------------------------------------
|-------------------------------------------------------------------------
|---9---9----------------------------------------------------------------
|---9---9--11--11-10--10--9---9---7---7---9---9----7---------------
|---7---7--11--11-10--10--9---9---7---7---9---9----7--------------
|------------9---9---8---8---7---7---5---5---7---7----5---------------

|--------------------------------------------------------------------------
|------------------------------------------------------------------------
|---9-9-9-9----------------------------------------------------9-------
|---------------11--11-11--11-10-10-10---11/-9-\-11--------------
|---7-7-7-7----------------------------------------------------7---------
|----------------9---9---9---9---8--8--8-----9-/-7-\--9--------------


 Now the fast distortion Part

|-------------------------------------------------------------------------
|--------------------------------------------------------------------------
|---------------------------------9--999999---------------------------
|--7--777777---9--999999---9--999999---7--7----11-11--11-11
|--7--777777---9--999999---7--777777---7--7----11-11--11-11
|--5--555555---7--777777-------------------5--5----9---9---9---9


                                                              P.M.- - - - - 
|--------------------------------------------------------------------------
|--------------------------------------------------------------------------
|--------------------------------9--999999----------------------------
|--7--777777---9--999999--9--999999---22222222-------------
|--7--777777---9--999999--7--777777---22222222-------------
|--5--555555---7--777777------------------00000000-------------
[ Tab from: http://www.guitartabs.cc/tabs/l/lagwagon/sleep_tab.html ]
|------------------------------------------------------------------------
|------------------------------------------------------------------------
|----------------------------------------------------------9--999999--
|--7--7---11--11-11--11--7--777777--9--999999--9--999999--
|--7--7---11--11-11--11--7--777777--9--999999--7--777777--
|--5--5----9---9---9---9---5--555555--7--777777----------------

|------------------------------------------------------------------------
|-------------------------------------------------------------------------
|----------------------------------------------------------9-------------
|--7--7---11--11-11--11--7--777777--9--999999--9-11-11-7-7
|--7--7---11--11-11--11--7--777777--9--999999--7-11-11-7-7
|--5--5----9---9---9---9---5--555555--7--777777------9--9--5-5

|-------------------------------------------------------------------------
|--------------------------------------------------------------------------
|--------9-9-------------------------9--9--------------------------------
|-9--9--9-9-11--11--7--7--9--9--9--9-11-11--10--10-9--9--7--7-
|-9--9--7-7-11--11--7--7--9--9--7--7-11-11--10--10-9--9--7--7-
|-7--7--------9---9---5--5--7--7---------9---9---8---8--7--7--5--5-


                  P.M.- - - - -
|-------------------------------------------------------------------------
|--------------------------------------------------------------------------
|------------------------------9--------------------------9--9--------
|--9--9---7---22222222----9-11-11---7--7---9--9--9--9-11-11--
|--9--9---7---22222222----7-11-11---7--7---9--9--7--7-11-11--
|--7--7---5---00000000 -------9---9---5--5---7--7---------9--9---

|-------------------------------------------------------------------------
|-------------------------------------------------------------------------
|----------------9--9-----------------------------------------------------
|--7--7--9--9--9--9-11--11-10--10--9--9-7--7--9--9--7-----------
|--7--7--9--9--7--7-11--11-10--10--9--9-7--7--9--9--7-----------
|--5--5--7--7---------9---9---8---8---7--7-5--5--7--7--5------------

|-------------------------------------------------------------------------
|-------------------------------------------------------------------------
|-9-9-9-9----------------------------------9-----------------------------
|-----------11--11-11--11-10--10-10---------------------------------
|-7-7-7-7----------------------------------7----------------------------
|------------9---9---9---9---8---8---8---------------------------------

|------------------------------------------------------------------------
|-------------------------------------------------------------------------
|----------------------------9-999999---------------------------------
|-7-777777--9-999999--9-999999-7--7--11-11-11-11---------
|-7-777777--9-999999--7-777777-7--7--11-11-11-11---------
|-5-555555--7-777777---------------5--5---9--9--9---9---------

|--------------------------------------P.M. - - - - --------------------
|------------------------------------------------------------------------
|---------------------------9-999999------------------------------------
|-7-777777-9-999999--9-999999-22222222---7-7-11-11-11-11
|-7-777777-9-999999--7-777777-22222222---7-7-11-11-11-11
|-5-555555-7-777777---------------00000000--5-5---9--9--9---9

|------------------------------------------------------------------------
|-------------------------------------------------------------------------
|--------------------------9--------------------------------------------
|7-777777-9-999999--9-Let Ring----------------------------------
|7-777777-9-999999--7-----------------------------------------------
|5-555555-7-777777------------------------------------------

Finally Play Intro (Clean)and the "Intro" 


Holy Crap! This shit takes longer than I thought! Oh well, I hope you guys Like the tabs.
Comments