Lagwagon - Sleep Chords & Tabs

 

Sleep Chords & Tabs

Lagwagon Chords & Tabs

Version: 2 Type: Bass Tab 0 ratings
1 star 2 stars 3 stars 4 stars 5 stars
comments

Sleep Bass Tab

-----------------------------------------------------------------------------
                        SLEEP   LAGWAGON   
-----------------------------------------------------------------------------

blythe@pathcom.com              > MEANS STRUM

INTRO
G]---------------]
D]-7-6-----------]
A]-----7-6-4-----]
E]-----------5-7-]
[ Tab from: http://www.guitartabs.cc/tabs/l/lagwagon/sleep_btab_ver_2.html ]
VERSE
G]-----------------------------------------------------------------]
D]-7-6---------------7-6---------------7-6-------------------------]
A]-----7-6-4-------------7-6-4--------------7-6-4-3-3-2-2----------]
E]-----------5-5-7-7-----------5-5-7-7---------------------5-5-7-7-]

BRIDGE BEFORE CHORUS
G]---------------]
D]---------------]
A]-7>----------7-]
E]----4>-5>-7>---]

CHORUS
G]---------------------------------------------------------------]
D]---------------------------------------------------------------]
A]-------7>-----4>-------7>-------------4>-------7>-----4>-------]
E]-5>-7>----4-4----5>-7>----x-x-x-x-4-4----5>-7>----4-4----5>-7>-]

VERSE
BRIDGE
CHORUS
VERSE
BRIDGE
Comments