Lagwagon - Mr Coffee Chords & Tabs

 

Mr Coffee Chords & Tabs

Lagwagon Chords & Tabs

Version: 2 Type: Bass Tab 0 ratings
1 star 2 stars 3 stars 4 stars 5 stars
comments

Mr Coffee Bass Tab

Song: Mr Coffee
Artist: Lagwagon
Available on the LP "Duh"

Original tab by blythe@pathcom.com
Re-tabbed by Ack (punkbassist@bassguitarist.com)

Just a few minor corrections to be made, like the second variation on
the intro and a bit of the chorus. Plus, the original guy had made some
quite vital errors on the amount of repetitions. So I ditched them
completely - but don't worry! It's not hard to work out. One listen
of the CD and you'll know the timing/repetition no problem at all.

[intro]
G|---4---4-----4---4-----4---4-----3-1-3-]
D|---------------------------------------]
A|-2---2---2-----------------------------]
E|-----------4---4---4-3---3---3-2-------]

G|---4---4-----4---4-----4---4-----------]
D|---------------------------------------]
A|-2---2---2-----------------------------]
E|-----------4---4---4-3---3---3-2-2-2---]

[verse]
G|-------------------------------]
D|-------------------------------]
A|----------7-6-4----------------]
E|-7>-4-4-4-------2-2-2-6-4-6-7>-]
[ Tab from: http://www.guitartabs.cc/tabs/l/lagwagon/mr_coffee_btab_ver_2.html ]
[chorus]
G|------------------------]
D|------------------------]
A|----4-6-7>-4-6-7>-9>----]
E|-7>------------------7>-]

[verse]
G|-------------------------------|
D|-------------------------------|
A|----------7-6-4----------------|
E|-7>-4-4-4-------2-2-2-6-4-6-7>-|

[chorus]
G|------------------------|
D|------------------------|
A|----4-6-7>-4-6-7>-9>----|
E|-7>------------------7>-|

[bridge]
G|----------------------------------------------|
D|----------------------------------------------|
A|-7>-4>-6>---7>-4>-6>---7>-4>-6>---7>-4>-6-4-2-|
E|----------7----------7----------7-------------|

G|---------------------------------------------|
D|---------------------------------------------|
A|-2-2-2---2-2-2-2---2-2-2---2-2-2-2-----------|
E|-------2---------2-------2---------2---0--0>-|

G|---------------|
D|---------------|
A|-----------1-2-|
E|-0-1-2-1-2-----|

["drinking coffee, i drink coffee"]
G|-------|
D|-------|
A|-7>----|
E|----7>-|

[outro]
G|-9-9-9-6-7---|
D|-----------9-|
A|-------------| End
E|-------------|
Comments