Lagwagon - Mr Coffee Chords & Tabs

 

Mr Coffee Chords & Tabs

Lagwagon Chords & Tabs

Version: 1 Type: Bass Tab 0 ratings
1 star 2 stars 3 stars 4 stars 5 stars
comments

Mr Coffee Bass Tab

Song: Mr Coffee
Artist: Lagwagon
Available on the LP "Duh"

Original tab by blythe@pathcom.com
Re-tabbed by Ack (punkbassist@bassguitarist.com)
Corrections by Ack (punkbassist@bassguitarist.com) on 28/03/01

OK chaps, another correction. I made ONE mistake on the last version,
but here it is, fixed. AND in this version, there are the right
repetitions this time. Sorry about the innaccuracy of the 'strum'
indicators, but I do have an idea of what to play, it's just I
don't want to give anyone the wrong info, so it's best if they
just work our their own timing.


key
---
~ = let note ring
>= strum
/ = slide up
\ = slide down


[intro]
G|---4---4-----4---4-----4---4-----3--1-3-|
D|----------------------------------------|
A|-2---2---2------------------------------| X 1
E|-----------4---4---4-3---3---3-2--2-----|

G|---4---4-----4---4-----4---4-----------|
D|---------------------------------------|
A|-2---2---2-----------------------------| X 1
E|-----------4---4---4-3---3---3-2-2-2---|

[verse]
G|------------------------------------|
D|------------------------------------|
A|----------7-6-4---------------------| X 2
E|-7>-4-4-4-------2-2-2-6-4-6-7-7-7-7-|

[chorus]
G|---------------------------|
D|---------------------------|
A|----4-6-7-7-7-6-7-7-7-9----| X 2
E|-7>---------------------7>-|
[ Tab from: http://www.guitartabs.cc/tabs/l/lagwagon/mr_coffee_btab.html ]
[verse]
G|------------------------------------|
D|------------------------------------|
A|----------7-6-4---------------------| X 2
E|-7>-4-4-4-------2-2-2-6-4-6-7-7-7-7-|

[chorus]
G|---------------------------|
D|---------------------------|
A|----4-6-7-7-7-6-7-7-7-9----| X 2
E|-7>---------------------7>-|

[bridge]
G|----------------------------------------------|
D|----------------------------------------------|
A|-7>-4>-6>---7>-4>-6>---7>-4>-6>---7>-4>-6-4-2-| X 1
E|----------7----------7----------7-------------|

G|--------------------------------------|
D|--------------------------------------|
A|-2-2-2---2-2-2-2---2-2-2---2-2-2-2----| X 1
E|-------2---------2-------2---------2--|

G|---------------------------------------------|
D|---------------------------------------------|
A|-2-2-2---2-2-2-2---2-2-2---2-2-2-2-----------| X 2
E|-------2---------2-------2---------2---0--0>-|

G|---------------|
D|---------------|
A|-----------1-2-| X 1
E|-0-1-2-1-2-----|

["drinking coffee, i drink coffee"]
G|-------|
D|-------|
A|-7>----| x 4
E|----7>-|

G|-------|
D|-------|
A|-7>----| x 1
E|-------|

then straight into

G|---------------------------------------------|
D|---------------------------------------------|
A|-2-2-2---2-2-2-2---2-2-2---2-2-2-2-----------| X 1
E|-------2---------2-------2---------2---0~~~~-|

[outro]
G|-9-9-9-6-7---|
D|-----------9-|
A|-------------| Finito!
E|-------------|


Questions, comments, etc. can be mailed to my address above
Be warned though, I don't check that one much...

Comments