Lagwagon - May Chords & Tabs

 

May Chords & Tabs

Lagwagon Chords & Tabs

Version: 1 Type: Tab 0 ratings
1 star 2 stars 3 stars 4 stars 5 stars
comments

May Tab

   
lagwagon
may 16


my first tab.
its obviously not 100% right
this is one hard song to tab

but i think this sounds close.
just alter some things if u need to


e---------------------------------------------------------------------------
g---------------------------------------------------------------------------
b--9-9-6-6h7-9-9-6-6h7-9-9-6-6h7-9-9-7p6-9-9-6-6h7-7p6-6-7-9-9-6-6h7-7p6-6-7
d---------------------------------------------------------------------------
a---------------------------------------------------------------------------
e---------------------------------------------------------------------------
[ Tab from: http://www.guitartabs.cc/tabs/l/lagwagon/may_tab.html ]
e------------------------------------------------------------------------------
g------------------------------------------------------------------------------
b-9-9-6-6h7-7p6-6-7-9-9-7-6-6-7-7-6-9-9-7p6-9-9-6-6h7-7p6-6-7-9-9-6-6h7-7p6-6-7 
d------------------------------------------------------------------------------
a------------------------------------------------------------------------
e------------------------------------------------------------------------

e--------------------------------------------
g--------------------------------------------
b-9-9-6-6h7-7p6-6-7-9-9-7-6-6-7-7-6----------
d--------------------------------------------
a--------------------------------------------
e--------------------------------------------

this part is hella hard and its impossible to tab it right
but here it goes.

e----------------------
g--------------7-8-7---
b-------7-9-7-9-----9-7
d----7-7---------------
a-5-5------------------
e----------------------

im feeling lazy now.
if u want the rest of the song try listening to it and playing it urself
or if u need me to tab it for u
email me
arctic_wolf_22@yahoo.com

also,
email me if u have the correct tab for this
Comments