Lagwagon - Island Of Shame Chords & Tabs

 

Island Of Shame Chords & Tabs

Lagwagon Chords & Tabs

Version: 1 Type: Bass Tab 0 ratings
1 star 2 stars 3 stars 4 stars 5 stars
comments

Island Of Shame Bass Tab

   
-----------------------------------------------------------------------
                  ISLAND OF SHAME    LAGWAGON
-----------------------------------------------------------------------

>Means Strum

INTRO
G]------------------------------------]
D]-14-5-10-----------14-5-10----------]
A]-12-7-8--3-5-7-5-3-12-7-8--3>-5>-7>-]
E]------------------------------------]
PLAY INTRO AGAIN BUT STRUM ALL THE NOTES

PART A
G]--------------------------------]
D]--------------------7-----------]
A]-8>-5>-7>-8>-5>---7----8>-5>-7>-]
E]----------------5---------------]

VERSE
G]----------------------------------------------------------------
D]----------------------------------------------------------------
A]----8-8-7-8-8-----------5-5-5-3-2-----------8-8-7-8-8---------5-
E]-5>-----------8-8-7-8-8-----------5-5-3-5-5-----------8-8-7-8---
[ Tab from: http://www.guitartabs.cc/tabs/l/lagwagon/island_of_shame_btab.html ]
---------------------------------------------------------------------
---------------------------------------------------------------------
-----------8-8-7-8-8-----------5-5-3-2-----------8-8-7-8-8-----------
-5-5-3-5-5-----------8-8-7-8-8---------5-5-3-5-5-----------8-8-7-8-8-

--------------]
--------------]
-5-5-5-5-8-10-]
--------------]

CHORUS
G]-----------------------------------------------2-0---0---------------------
D]---------7---------7-----------------3-3-3-2-0-----2---2-0---2-0-----0-----
A]-8---7-8---10-8-10---------------3-5-----------------------3-----3-2---3-2-
E]---8-----------------5-3-5-8-5-3-------------------------------------------

SOLO PART
G]---------------------------------------]
D]---------------------------------------]
A]-------3---3-3-3-7-5-3-------3---------]
E]-5-5-5---5-------------5-5-5---5-3>-5>-]

VERSE
CHORUS

BRIDGE1                               PLAY THIS PART A COUPLE TIMES
G]----------------------------------|-------------]
D]----------------------------------|-------------]
A]----------------------3-3-5-5-7-7-|-------------]
E]-5--3--1--3--5--3--1--------------|-5>-3>-1>-3>-]

BRIDGE2 (till pause)
G]-------------]          [-------]
D]-------------]          [-------]
A]----3>-5>-7>-]          [-7-7-7-]
E]-5>----------]          [-------]

PART A TILL END





Comments