Lagwagon - Inspector Gadget Chords & Tabs

 

Inspector Gadget Chords & Tabs

Lagwagon Chords & Tabs

Version: 1 Type: Bass Tab 0 ratings
1 star 2 stars 3 stars 4 stars 5 stars
comments

Inspector Gadget Bass Tab

   
Inspector Gadget by Lagwagon
As heard on "Duh"

Part A
G--------------------------------------------/
D---------------------------------7-6--------/
A-------5-7---6---5-----------5-7------------/
E-5-7-8-----8---7---8--5-7--8----------------/
[ Tab from: http://www.guitartabs.cc/tabs/l/lagwagon/inspector_gadget_btab.html ]
Part B
G--------------------------------------------/
D---------------------7-6-5-4------7---------/
A-------5-7---6---5-----------8--7-----------/
E-5-7-8-----8---7---8------------------------/

(repeat part a and then play this)

Part C

G--------------------------------------------/
D--------------------------------------------/
A-------5-7---6---5--------------------------/
E-5-7-8-----8---7---8----5-4-3-2-1---0-5-----/

send questions or comments to me at: jdar14@hotmail.com

Comments