Lagwagon - Bombs Away Chords & Tabs

 

Bombs Away Chords & Tabs

Lagwagon Chords & Tabs

Version: 2 Type: Bass Tab 0 ratings
1 star 2 stars 3 stars 4 stars 5 stars
comments

Bombs Away Bass Tab

BOMBS AWAY - Lagwagon

blythe@pathcom.com
www.geocities.com/SunsetStrip/Backstage/1711

>Means Strum

INTRO VERSE x2
G]--------------------------------------]
D]--------------------------------------]
A]-2-2-9-9-7-7-5-5-------5-5-9-9-7-7-5>-]
E]-----------------3>-5>----------------]

VERSE 
G]-----------------------------------]
D]-----------------------------------]
A]-5>-2>-------5>-2>-------5-4-7-4-5-]
E]-------3>-5>-------3>-5>-----------]

INTRO VERSE
VERSE
[ Tab from: http://www.guitartabs.cc/tabs/l/lagwagon/bombs_away_btab_ver_2.html ]
PRE-CHORUS
G]--------------------------------------------------------------------------]
D]--------------12>-14>-17>-19>\16-14---------------------------------------]
A]5>-7>-10>-12>-----------------------5>-2>-5>-4>-5-4-2---------5-4-2-------]
E]------------------------------------------------------5-3>-5>------5-3-2-0]

CHORUS
G]------------------------------------------]
D]------------------------------------------]
A]-5-5----------5---------------5>----------]
E]-----5>-3>-5>-----5---3---5------5>-3>-5>-]

BRIDGE
G]-------------] [-----------]
D]-------------] [-----------]
A]-5>-2>-------] [-5-4-7-4-5-]
E]-------3>-5>-] [-----------]

PRE-CHORUS
CHORUS

OUTRO
G]-------------------------]
D]-----------5-------7-----]
A]-5>-2>---5---5---7---7-5-]
E]-------3-------5---------]
                           



Comments