Lagwagon - Beer Goggles Chords & Tabs

 

Beer Goggles Chords & Tabs

Lagwagon Chords & Tabs

Version: 2 Type: Bass Tab 0 ratings
1 star 2 stars 3 stars 4 stars 5 stars
comments

Beer Goggles Bass Tab

   
-----------------------------------------------------------------------
                  BEER GOGGLES      LAGWAGON
-----------------------------------------------------------------------

>Means Strum

INTROx4
G]-------------] [----] [---------------]
D]-------------] [----] [---------------]
A]-6>----2>----] [-6>-] [-6>-----4>-----]
E]----6>----2>-] [----] [----6-7----2-1-]
[ Tab from: http://www.guitartabs.cc/tabs/l/lagwagon/beer_goggles_btab_ver_2.html ]
VERSEx4
G]-------------------------------------------]
A]-----------------------6---------8---------]
A]-6-4-6-6-6-6-9-6-6-6-6---6-6-6-6---6-6-6-6-]
E]-------------------------------------------]

PART B OF VERSE
G]-------]
D]-------]
A]-2>-4>-]
E]-------]

VERSE
PART B

BRIDGE
G]------------------------------]
D]------------------------------]
A]----------6-6-5-------------6>]
E]-2>-4>-6>-------2>-4>-0>-2>---]

VERSE

PART OF INTRO
G]----]
D]----]
A]----]
E]-6>-]

END
G]--------------|---------------]
D]--------------|---------------]
A]-6>----2>-----|-6>-----4>-----]
E]----6>----2>--|----6-7----2-1-]


Comments