Lagwagon - Bad Scene Chords & Tabs

 

Bad Scene Chords & Tabs

Lagwagon Chords & Tabs

Version: 1 Type: Tab 0 ratings
1 star 2 stars 3 stars 4 stars 5 stars
comments

Bad Scene Tab

			BAD SCENE - Lagwagon


By: CHENZ (vmarvaso@kent.edu)(http://www.personel.kent.edu/~vmarvaso)

Verse
e|---------------------------------------------------------------------------|
B|---------------(3x)-then double-time first two chords----------------------|
G|--9--11--------------------------------------------------------------------|
D|--9--11--9--6--------------------------------------------------------------|
A|--7---9--9--6--------------------------------------------------------------|
E|---------7--4--------------------------------------------------------------|
[ Tab from: http://www.guitartabs.cc/tabs/l/lagwagon/bad_scene_tab.html ]
Chorus
e|---------------------------------------------------------------------------|
B|----------------------------------------------------------then repeat verse|
G|-------------(2x)---"so fuck longevity....--pm^^^^pm^^^^-------------------|
D|--9--6--2--4---------2--4--9--8--6--4-------2-----4------------------------|
A|--9--6--2--4---------2--4--9--8--6--4-------2-----4------------------------|
E|--7--4--0--2---------0--2--7--6--4--2-------0-----2------------------------|

Outro
e|---------------------------------------------------------------------------|
B|-----"im against it......................bad scene"------------------------|
G|---------------------------------------------------------------------------|
D|-------------------------------------(4x)----------------------------------|
A|---------9-6-6666-7-6/7/6--4-4/6-9-------end on----------------------------|
E|------777--------------------------7-------7-------------------------------|
Comments