Lady Macbeth - Indigo Rail Chords & Tabs

 

Indigo Rail Chords & Tabs

Lady Macbeth Chords & Tabs

Version: 1 Type: Bass Tab 0 ratings
1 star 2 stars 3 stars 4 stars 5 stars
comments

Indigo Rail Bass Tab

   
Indigo Rail.
By "Lady Macbeth"


Intro (X2)
Gb||-----11--------------7--|
Db||---9------9-------7-----|
Ab||-7----------7---5-------|
Eb||-

A part (Play as much as the guitar solo continue…)
Gb||-----------------------------------------------------|
Db||-----------------------------------------------------|
Ab||--7-7-7------------5/6/7-7-7----------------10-9-7/5-|
Eb||---------5/6/7-7-7------------5/6/7-7-7-X7-----------|

B part
Gb||----------------------------------------------------------------------|
Db||----------------------------------------------------------------------|
Ab||-7-7-5-7/9-7\5-------------10-9-7/5--7-7-5-7/9-7\5--------------------|
Eb||-------------------7-5-7-X7------------------------------7-5-7--5-7---|
[ Tab from: http://www.guitartabs.cc/tabs/l/lady_macbeth/indigo_rail_btab.html ]
Bass solo
Gb||---------------------7-9--/12-12-11-9-7/9/7---------------------------------|
Db||--------------7-8-9----------------------------8-7--------------7/8-----7/9-|
Ab||-7----7-10-----------------------------------------10-7-7-10------10--------|
Eb||----------------------------------------------------------------------------|

Gb||-9-7----------------------------------------------------12------------12-----|
Db||-----8/7/6-------5-7/8/7-7/5-------5(o)---12/13/14----12/13/14---------------|
Ab||-----------7--5/7--------------7---------------------------------------------|
Eb||----------------------------------7-7----------------------------------------|

Gb||-----------12------------12---------------------12/14/12---------------------------------------|
Db||-12/13/14----12/13/14---------12-14-12-14----------14/12---------------------------------------|
Ab||-------------------------------------------------------------------14/13/12--------------------|
Eb||-------------------------------------------------------------------------------15-12-12-15-12--|

Gb||----------------------------------------------------------|
Db||---------14-12---------14-12---------14-12---------14-12--|
Ab||----------------------------------------------------------|
Eb||-12-12------------X-12----------X-12----------X-12--------|
Comments