Lady Gaga - Poker Face Chords & Tabs

 

Lady Gaga Chords & Tabs

Version: 1 Type: Tab 1 rating
1 star 2 stars 3 stars 4 stars 5 stars
comments

Poker Face Tab

Song: Pokerface
Artist: Lady GaGa
Tuning: Standard

Intro: 

Rhythm guitar
----------------------------|--------------------------|
----------------------------|--------------------------|
----------------------------|--------------------------|     (x4)
-----6--6-------------------|-6--6--------4--4---------|
-----------------6--6-------|-------7------------------|
-----------4--4--------4--4-|----------7--------2--2---|


Lead guitar
----------------------------|---------------------------|
----------------------------|---------------------------|
----------------------------|---8(x11)--9h8--9h8--------|    (x2)
----9(x11)--11h9--11h9------|---------------------------|
----------------------------|---------------------------|
----------------------------|---------------------------|


Verse 1
Verse 2

Rhythm guitar
----------------------------|--------------------------|
----------------------------|--------------------------|
----------------------------|--------------------------|     (x4)
-----6--6-------------------|-6--6--------4--4---------| 
-----------------6--6-------|-------7------------------|
-----------4--4--------4--4-|----------7--------2--2---|


Lead guitar
----------------------------|-------------------------------------|
----------------------------|--9----------------------------------|
----------------------------|-----8--7h8--9--8--7h8--9--8---------|
---9b(x12)------9b(x12)-----|------------------------------9--8b--|
----------------------------|-------------------------------------|
----------------------------|-------------------------------------|


Pre Chorus

Rhythm guitar
----------------------------|--------------------------|
----------------------------|--------------------------|
----------------------------|--------------------------|     (x3)
-----6--6-------------------|-6--6--------4--4---------|
-----------------6--6-------|-------7------------------|
-----------4--4--------4--4-|----------7--------2--2---|


Lead guitar

----------------------------|
----------------------------|
----------------------------|
--------9b(x12)-------------|
----------------------------|
----------------------------|


---------------------------------------|----------------------------|
---------------------------------------|----------------------------|
-------8--7b---------8--7h8--7---------|----------------------------|  (x2)
---6b---------9--6b-------------4--6---|--------9b(x12)-------------|
---------------------------------------|----------------------------|
---------------------------------------|----------------------------|


Chorus:

Rhythm guitar
----------------------------------------------------|
----------------------------------------------------|
----------------9-----------------------------------|   (x2)
-----6----------9---------9----------8--------------|
-----6----------7---------9----------8--------------|
-----4--------------------7----------6--------------|


Lead guitar
---------------------------------------------------------------------------|
---------------------------------------------------------------------------|
---16-15------16-15--------------------------------------------------------|
----------16---------16--16-16-16--14-13-14s16-16b-------------------------|
----------------------------------------------------13h14-13----13h14-13---|
-------------------------------------------------------------14----------14|

[ Tab from: http://www.guitartabs.cc/tabs/l/lady_gaga/poker_face_tab.html ]
---------------------------------------------------------------------------|
---------------------------------------------------------------------------|
---16-15------16-15--------------------------------------------------------|
----------16---------16--16-16-16--14-13-14s16-16b-------------------------|
----------------------------------------------------13h14-13----13h14-13---|
-------------------------------------------------------------14----------14|


Rhythm guitar
----------------------------|--------------------------|
----------------------------|--------------------------|
----------------------------|--------------------------|     (x2)
-----6--6-------------------|-6--6--------4--4---------|
-----------------6--6-------|-------7------------------|
-----------4--4--------4--4-|----------7--------2--2---|


Lead guitar
----------------------------|--------------------------|
----------------------------|--------------------------|
----------------------------|--------------------------|
--------9b(x12)-------------|-------9b(12)-------------|
----------------------------|--------------------------|
----------------------------|--------------------------|


Bridge

Rhythm guitar
----------------------------|--------------------------|
----------------------------|--------------------------|
----------------------------|--------------------------|     (x4)
-----6--6-------------------|-6--6--------4--4---------|
-----------------6--6-------|-------7------------------|
-----------4--4--------4--4-|----------7--------2--2---|


Lead guitar
---------------------------------------|
---------------------------------------|
-------8--7b---------8--7h8--7---------|  (x6)
---6b---------9--6b-------------4------|
---------------------------------------|
---------------------------------------|


Chorus:

Rhythm guitar
----------------------------------------------------|
----------------------------------------------------|
----------------9-----------------------------------|   (x8)
-----6----------9---------9----------8--------------|
-----6----------7---------9----------8--------------|
-----4--------------------7----------6--------------|


Lead guitar
---------------------------------------------------------------------------|
---------------------------------------------------------------------------|
---16-15------16-15--------------------------------------------------------|(x8)
----------16---------16--16-16-16--14-13-14s16-16b-------------------------|
----------------------------------------------------13h14-13----13h14-13---|
-------------------------------------------------------------14----------14|

                       
Outro:

Rhythm guitar
----------------------------|--------------------------|
----------------------------|--------------------------|
----------------------------|--------------------------|  (x6)
-----6--6-------------------|-6--6--------4--4---------|  
-----------------6--6-------|-------7------------------|
-----------4--4--------4--4-|----------7--------2--2---|


Lead guitar
----------------------------|--------------------------|
----------------------------|--------------------------|
----------------------------|--------------------------|  (x6)
--------9b(x12)-------------|-------9b(12)-------------|
----------------------------|--------------------------|
----------------------------|--------------------------|

Both guitars

-----------------------------|
-----------------------------|
-----------------------------|
---44--5--6------------------|
---44--5--6------------------|
---22--3--4------------------|


End
Comments