Lady Gaga - Poker Face Chords & Tabs

 

Poker Face Chords & Tabs

Lady Gaga Chords & Tabs

Version: 4 Type: Bass Tab

Poker Face Bass Tab

   
-------------------------------------------------------------------------------
			     Poker Face - Lady Gaga
-------------------------------------------------------------------------------

Tabbed By: WongWai
e-mail: ihsomik@hotmail.com

Tuning: Standard tuning (EADG)

There are only three parts to combine to form this song.

Intro / Verse:

   1 n 2 n 3 n 4 n 1 n 2 n 3 n 4 n
G|-----------------------------------|
D|-6-6-------------6-6-----4-4-------|
A|---------6-6---------7-------------|
E|-----4-4-----4-4-------7-----2-2---|

Part you need to play before the chrous:
[ Tab from: http://www.guitartabs.cc/tabs/l/lady_gaga/poker_face_btab_ver_4.html ]
   1 n 2 n 3 n 4 n 1 n 2 n 3 n 4 n
G|-----------------------------------|
D|-6-6-------------6-6---------------|
A|---------6-6-----------------------|
E|-----4-4-----4-4-------------------|

Play two times in single Chorus:

G#, E, B

   1 n 2 n 3 n 4 n 1 n 2 n 3 n 4 n
G|-----------------------------------|
D|---6---6---6---6---2---2---2---2---|
A|-----------------------------------|
E|-4---4---4---4---0---0---0---0-----|

   1 n 2 n 3 n 4 n 1 n 2 n 3 n 4 n
G|-------------------4---4---4---4---|
D|---2---2---2---2-------------------|
A|-----------------2---2---2---2-----|
E|-0---0---0---0---------------------| 

Try to figure out what you need to play, enjoy!



| /  slide up
| \  slide down
| h  hammer-on
| p  pull-off
| ~  vibrato
| +  harmonic
| x  Mute note
===============================================================================