Lady Gaga - Bad Romance Chords & Tabs

 

Bad Romance Chords & Tabs

Lady Gaga Chords & Tabs

Version: 3 Type: Tab 0 ratings
1 star 2 stars 3 stars 4 stars 5 stars
comments

Bad Romance Tab

Hello peepps
i was listning to this song the other day and thought it was kinda catchy so i decided 
try and figure it out on guitar, here ya go! :)

Intro: (it could be played on any string but i think it sounds best on B)

 e -------------------------------------------------------------|
 b ---0--0--7-7-8-7--0--0--7-7--8-7---0--0--7-7--8-7--3-3-0-3-3-|
 g -------------------------------------------------------------|
 d -------------------------------------------------------------|
 a -------------------------------------------------------------|
 e -------------------------------------------------------------|

(it repeats a couple times throughout the rest of the song

Verse: (very very simple)
[ Tab from: http://www.guitartabs.cc/tabs/l/lady_gaga/bad_romance_tab_ver_3.html ]
 e ------------------------------------------------------------|
 b ---0-0-0-0-0-0-0-3-0-0-0~--0-0-0-0-0-0-3-0-0-0-------0-0----|
 g --------------------------2----------------------2-2--------|
 d ------------------------------------------------------------|
 a ------------------------------------------------------------|
 e ------------------------------------------------------------|

 e ------------------------------------------------------------|
 b --7-3-0-----0-0---------------------------------------------|
 g --------2-2-------------------------------------------------|
 d ------------------------------------------------------------|
 a ------------------------------------------------------------|
 e ------------------------------------------------------------|

Chorus/Main Rythum:

 e ------------------------------------------------------------|
 b ------------------------------------------------------------|
 g ------------------------------------------------------------|
 d ------------------------------------------------------------|
 a ------------------------------------------------------------|
 e ------------------------------------------------------------|

(sorry i couldnt really figure it out but it involves frets "0" "3" "5" and "7" on the B string

Happy tabbing :D
Comments