Lady Gaga - Bad Romance Chords & Tabs

 

Lady Gaga Chords & Tabs

Version: 2 Type: Bass Tab 0 ratings
1 star 2 stars 3 stars 4 stars 5 stars
comments

Bad Romance Bass Tab

   
Intro

G|------------------------------------------------------------------|
D|------------------------------------------------------------------|
A|------------------------------------------------------------------|
E|-1-1-1-1-1-1-1-1-3-3-3-3-3-3-3-3-4-4-4-4-4-4-4-4-5-5-5-5-5-5-5-5~-|

Couplet 1

G|------------------------------------------------------------|
D|------------------------------------------------------------|
A|--------7-7-8-7--------7-7-8-7--------7-7-8-7--8--8--10--10-|
E|-5555-5----------5-5-5---------5555-5-----------------------|

G|------------------------------------------------|x4
D|------------------------------------------------|
A|-------------3--3--8--8--------------3--3-------|
E|-5--5--5--5--------------5--5--5--5--------3--3-|

Refrain

G|-----------------------------------------------------------------------------------|
D|-----------------------------------------------------------------------------------|
A|-8888-8-8-8-8-8-10-10-10-10-10-10-10-10-12121212*-12-12-12-12-12-3-3-3-3-3-3-3-3---|
E|-----------------------------------------------------------------------------------|

*12

G|------------------------------------------------------------------------------------------|
D|------------------------------------------------------------------------------------------|
A|-8888-8-8-8-8-8-10-10-10-10-10-10-10-10-11111111*-11-11-11-11-11-12-12-12-12-15-15-15-15--|
E|------------------------------------------------------------------------------------------|

*11

G|-----------------------------------------------------------------------------------|
D|-----------------------------------------------------------------------------------|
A|-8888-8-8-8-8-8-10-10-10-10-10-10-10-10-12121212*-12-12-12-12-12-3-3-3-3-3-3-3-3---|
E|-----------------------------------------------------------------------------------|

*12

G|------------------------------------------------------------------------------------------|
D|------------------------------------------------------------------------------------------|
A|-8888-8-8-8-8-8-10-10-10-10-10-10-10-10-11111111*-11-11-11-11-11-12-12-12-12-12-12-12-12--|
E|------------------------------------------------------------------------------------------|

*11

Couplet 2

G|------------------------------------------------------------|
D|------------------------------------------------------------|
A|--------7-7-8-7--------7-7-8-7--------7-7-8-7--8--8--10--10-|
E|-5555-5----------5-5-5---------5555-5-----------------------|

G|------------------------------------------------|x4
D|------------------------------------------------|
A|-------------3--3--8--8--------------3--3-------|
E|-5--5--5--5--------------5--5--5--5--------3--3-|

Pont
[ Tab from: http://www.guitartabs.cc/tabs/l/lady_gaga/bad_romance_btab_ver_2.html ]
G|---------------------------------------------------------------------------------|
D|---------------------------------------------------------------------------------|
A|-8-8-8-8-8-8-8-8-10-10-10-10-10-10-10-10-12-12-12-12-12-12-12-12-3-3-3-3-3-3-3-3-|
E|---------------------------------------------------------------------------------|

G|-----------------------------------------------------------------------------------------|
D|-----------------------------------------------------------------------------------------|
A|-8-8-8-8-8-8-8-8-10-10-10-10-10-10-10-10-11-11-11-11-11-11-11-11-12-12-12-12-15-15-15-15-|
E|-----------------------------------------------------------------------------------------|

G|---------------------------------------------------------------------------------|
D|---------------------------------------------------------------------------------|
A|-8-8-8-8-8-8-8-8-10-10-10-10-10-10-10-10-12-12-12-12-12-12-12-12-3-3-3-3-3-3-3-3-|
E|---------------------------------------------------------------------------------|

G|-----------------------------------------------------------------|
D|-----------------------------------------------------------------|
A|-8-8-8-8-8-8-8-8-10-10-10-10-10-10-10-10-11-11-11-11-11-11-11-11-|
E|-----------------------------------------------------------------|

Outro

G|-----------------------------------------------------------------------------------|
D|-----------------------------------------------------------------------------------|
A|-8888-8-8-8-8-8-10-10-10-10-10-10-10-10-12121212*-12-12-12-12-12-3-3-3-3-3-3-3-3---|
E|-----------------------------------------------------------------------------------|

*12

G|------------------------------------------------------------------------------------------|
D|------------------------------------------------------------------------------------------|
A|-8888-8-8-8-8-8-10-10-10-10-10-10-10-10-11111111*-11-11-11-11-11-12-12-12-12-15-15-15-15--|
E|------------------------------------------------------------------------------------------|

*11

G|-----------------------------------------------------------------------------------|
D|-----------------------------------------------------------------------------------|
A|-8888-8-8-8-8-8-10-10-10-10-10-10-10-10-12121212*-12-12-12-12-12-3-3-3-3-3-3-3-3---|
E|-----------------------------------------------------------------------------------|

*12

G|-------------------------------------------------------------------------------------------|
D|-------------------------------------------------------------------------------------------|
A|-8888-8-8-8-8-8-10-10-10-10-10-10-10-10-11111111*-11-11-11-11-11-12-12-12-12-12-12-12-12~--|
E|-------------------------------------------------------------------------------------------|

*11
Comments