Lacuna Coil - Unspoken Chords & Tabs

 

Unspoken Chords & Tabs

Lacuna Coil Chords & Tabs

Version: 1 Type: Bass Tab 0 ratings
1 star 2 stars 3 stars 4 stars 5 stars
comments

Unspoken Bass Tab

Band- Lacuna Coil
Song- Unspoken

G-------------|
D-------------|
A----3--2--0--|
E-0-----------|
B-------------|
Intro X4
[ Tab from: http://www.guitartabs.cc/tabs/l/lacuna_coil/unspoken_btab.html ]
G-------------------|
D-------------------|
A----------------0--|
E-0-----------------|
B-----2----0-0------|
 Verses

G---------------------------------------------|
D---------------------------------------------|
A----------------------3--0--0--2--2--3--3--5-|
E-0--0-0----0-0-0-0-0-------------------------|
B---------------------------------------------|
 Break @ 2:37
Comments