Lacuna Coil - To Myself I Turned Chords & Tabs

 

To Myself I Turned Chords & Tabs

Lacuna Coil Chords & Tabs

Version: 1 Type: Tab 0 ratings
1 star 2 stars 3 stars 4 stars 5 stars
comments

To Myself I Turned Tab

---------------------------------------------------------------------------
			  "To Myself I tunred"
                             Lacuna Coil
---------------------------------------------------------------------------

Tuning: Standard
|x - mute note
|/ - slide up
|h / hammer
|p - pull

Intro and Verses:
Guitar I
e|-------------------------------------------------------------------------|
B|---3--3--3--3/4---4--4\3--1----------------------------------------------|
G|-0--0--0--0-----0--0---------3-2-----repeat-until-pre-chorus-------------|
D|-------------------------------------------------------------------------|
A|-------------------------------------------------------------------------|
E|-------------------------------------------------------------------------|

Intro and Verses:
Guitar II
E|-------------------------------------------------------------8-----------|
B|--8------8-10-7---x-7-8-5-7----5-5-------8---8-10-11-10---11---11-10-8---|
G|----7----7--------8---7-8-------------7----------------------------------|
D|-------------------------------------------------------------------------|
A|-------------------------------------------------------------------------|
E|-------------------------------------------------------------------------|

[ Tab from: http://www.guitartabs.cc/tabs/l/lacuna_coil/to_myself_i_turned_tab.html ]
Pre Chorus ( Play clean )
e|--------------------10---------------------------------------------------|
B|--8-8/--10--10/-7-7-----8--11---8-8/-10--10/--12--12---------------------|
G|-8-8-/10--10--/7-7-------------8-8-/10-10--/12--12---until-chorus--------|
D|-------------------------------------------------------------------------|
A|-------------------------------------------------------------------------|
E|-------------------------------------------------------------------------|


Chorus ( Play Distortion ):not exactly right, play with it you'll get it:
e|-------------------------------------------------------------------------|
B|-------------------------------------------------------------------------|
G|------------------4-4-4-xx-----5-5-xx----------5-5-5---------------------|
D|-5--5xx---3-3xx---4-4-4-xx-----5-5-xx---5-7----5-5-5---------------------|
A|-5--5xx---3-3xx---2-2-2-xx-----3-3-xx---5-5----7-7-7---------------------|
E|-3--3xx---1-1xx-------------------------7-7------------------------------|

The Break (Bridge whatever)
e|-------------------------------------------------------------------------|
B|-------------------------------------------------------------------------|
G|------------7h8p7---5-7-------repeat-until-next-verse--------------------|
D|----5--5-----------------------------------------------------------------|
A|-------------------------------------------------------------------------|
E|-------------------------------------------------------------------------|



Tabbed by: Jessy Wilson
contact:sombs999@aol.com

questions? comments?
============================================================================
Comments