Lacuna Coil - To Live Is To Hide Chords & Tabs

 

To Live Is To Hide Chords & Tabs

Lacuna Coil Chords & Tabs

Version: 1 Type: Tab 0 ratings
1 star 2 stars 3 stars 4 stars 5 stars
comments

To Live Is To Hide Tab

To Live is to Hide" by Lacuna Coil

Tabbed by: Sergio - dearaujo7@hotmail.com

Fig. 1 Intro/Verse/Chorus
|------------|-------------|-------------|----------------------||
|------------|-------------|-------------|---------------------o||
|------------|-------------|-------------|----------------------||
|------------|-------------|-------------|----------------------||
|-4---2------|-2---5-------|-4---2-------|-2---5---------------o||
|-2---0------|-2---5-------|-2---0-------|-2---5----------------||


Fig. 2 
|-------------------------|-------------------------------------||
|-------------------------|------------------------------------o||
|-------------------------|-------------------------------------||
|-------------------------|-------------------------------------||
|-4-4-4-4-4--4-4-4-4-4----|-4-4-4-4-4--4-4-4-4-4---------------o||
|-2-2-2-2-2--2-2-2-2-2----|-2-2-2-2-2--2-2-2-2-2----------------||


Repeat Fig. 1 w/fig. 5(Chorus)

[ Tab from: http://www.guitartabs.cc/tabs/l/lacuna_coil/to_live_is_to_hide_tab.html ]
Fig. 3 
|---------------------------------------------------------------||
|-----------7--------7---------7--------7---------5------------o||
|---6---4------6--4-----6---4-----6--4-----6---4----------------||
|-4---4-------------------4------------------4------------------||
|--------------------------------------------------------------o||
|---------------------------------------------------------------||

Repeat Fig. 1 (Verse) 

Fig. 2 

Fig. 1 w/fig. 5 (Chorus)
 

Fig. 4
|---------------------------------------------------------------||
|--------------------------------------------------------------o||
|---------------------------------------------------------------||
|---------------------------------------------------------------||
|-4-4-4-4-4--4-4-4-4-4--4-4-4-4-4--4-4-4-4-4--4-4-4-4-4-4-4-4--o||
|-2-2-2-2-2--2-2-2-2-2--2-2-2-2-2--2-2-2-2-2--2-2-2-2-2-2-2-2---||


With Fig. 4
|-------------------------------|-------------------------------||
|-------------------------------|------------------------------o||
|----------4------------6-------|--------4------------6---------||
|-4--7-6-4---7-6--7-6-4---7-4---|--7-6-4---7-6--7-6-4---7-4-----||
|-------------------------------|------------------------------o||
|-------------------------------|-------------------------------||


Fig. 5 Into final chorus
|-------------------|-------------------|
|-------7-----------|-------7-----------|
|-6-----------6--7--|-6-----------6--7--|
|----4-----4--------|----4-----4--------|
|-------------------|-------------------|
|-------------------|-------------------|

Repeat Fig. 1 w/fig. 5 (Chorus)

Please Vote!
Comments