Lacuna Coil - To Live Is To Hide Chords & Tabs

 

To Live Is To Hide Chords & Tabs

Lacuna Coil Chords & Tabs

Version: 1 Type: Bass Tab 0 ratings
1 star 2 stars 3 stars 4 stars 5 stars
comments

To Live Is To Hide Bass Tab

Band- Lacuna Coil
Song- To Live Is To Hide

Main Riff:
|------------|
|------------|
|------------| 12x
|-2--0-------|
|-------0--3-|

Interlude 1:
|-----------|
|-----------|
|-----------| 8x
|-2222-2222-|
|-----------|

Main Riff 8x

Interlude 2:
|--------------|
|--4-------2---|
|-------4------| 4x
|--------------|
|--------------|

Main Riff 8x

Interlude 1 8x

Main Riff 8x

[ Tab from: http://www.guitartabs.cc/tabs/l/lacuna_coil/to_live_is_to_hide_btab.html ]
Interlude:
|------------------------------|
|------------------------------|
|------------------------------| 2x
|-2222-2222-2222-2222-22222222-|
|------------------------------|

|----------------------------------|
|----------------------------------|
|----------------------------------|
|-22222222222222222222222222222222-|
|----------------------------------|
I think the number of 2's are not correct, but you'll hear it, how often you have to play it.

|--------------|
|--------------|
|--------------|
|-2-(let ring)-|
|--------------|

Main Riff 16x

End:
|--------------|
|--------------|
|--------------|
|-2-(let ring)-|
|--------------|
Comments