Lacuna Coil - Tight Rope Chords & Tabs

 

Tight Rope Chords & Tabs

Lacuna Coil Chords & Tabs

Version: 2 Type: Tab 0 ratings
1 star 2 stars 3 stars 4 stars 5 stars
comments

Tight Rope Tab

   
Band:  (lacuna coil)
Album: (comalies)
Song:  (tight rope)

Version 1.0 - (12/05/2004)

Transcribed By: (Emilio James)
Email:          (olgardej@hotmail.com)


.  - palm mute

Tunning E A D G B E


        INTRO(DISTORTION): (00:18)
P.M  .. .. ..
  |-------------|
  |-------------|
  |-------------|
  |-------------|
  |--22-22-22---|
  |--00-00-00---|


	PRE-VERSE(DISTORTION: (00:20)
P.M    ..    . .
  |-------------------|
  |-------------------|
  |-------------------|
  |-------------------|
  |--2-22232-222232---|
  |--0-00010-000010---|

	VERSE (G1)(OVERDIVEN)(00:34):  I THINK THIS PART GOES SOMETHING LIKE THIS
[ Tab from: http://www.guitartabs.cc/tabs/l/lacuna_coil/tight_rope_tab_ver_2.html ]
  |------------------------------|
  |------------------------------|
  |------------------------------|
  |--------9---------------------|
  |------7---10-9-10-9-7---------|
  |--0---------------------------|

	   PRECHORUS(G2)(DISTORTION)(00:47)
P.M     ..
  |--------------------|
  |--------------------|
  |--------------------|
  |-----------7--------|
  |---2-2222--5--------|
  |---0-0000-----------|





	CHORUS:(DISTORTION) (1:04)
P.M      .....
  |--------------------------|
  |--------------------------|
  |--------------------------|
  |------554455--5--554455---|
  |---2--554455--3--554455---|
  |---0----------------------|

	POST-CHORUS:(DISTORTION) (02:42)
PM    ....   ....
  |-----------------|
  |-----------------|
  |-----------------|
  |-----------------|
  |--22222--22222---|
  |--00000--00000---|
Comments