Lacuna Coil - Tight Rope Chords & Tabs

 

Tight Rope Chords & Tabs

Lacuna Coil Chords & Tabs

Version: 1 Type: Tab 0 ratings
1 star 2 stars 3 stars 4 stars 5 stars
comments

Tight Rope Tab

   
------------------------------------------------------------------------------
Tight Rope - Lacuna Coil
-------------------------------------------------------------------------------
Tabbed by: Sick Steve


Tuning: Standard tuned seven string

Intro 1 Guitar 1

Let ring

|-------------------------------------------------|
|----12--13-12-----12-----------------------------|
|-15------------15----15--------------------------|
|-------------------------------------------------|
|-------------------------------------------------|
|-------------------------------------------------|
|-------------------------------------------------|

Intro 1 Guitar 2

|-------------------------------------------------|
|-------------------------------------------------|
|-------------------------------------------------|
|-------------------------------------------------|
|-------------------------------------------------|
|-------------------------------------------------|
|-5-5--5-5---5-5----------------------------------|

Intro 2

|-------------------------------------------------|
|-------------------------------------------------|
|-------------------------------------------------|
|-------------------------------------------------|
|-------------------------------------------------|
|-7-77--7/8--7---7--7-7-7/8--7--------------------|
|-5-55--5/6--5---5--5-5-5/6--5--------------------|
       xx                     x       x

Verse Guitar 1

Let ring
[ Tab from: http://www.guitartabs.cc/tabs/l/lacuna_coil/tight_rope_tab.html ]
|-----------------------------------------------|
|-5-5-------------------------------------------|
|-4-3-3h4---------------------------------------|
|-----------------------------------------------|
|-----------------------------------------------|
|-----------------------------------------------|
|-----------------------------------------------|

Verse Guitar 2

|-------------------------------------------------|
|-------------------------------------------------|
|-------------------------------------------------|
|-------------------------------------------------|
|-------------------------------------------------|
|-7-77--7/8--5------------------------------------|
|-5-55--5/6--3------------------------------------|
       xx
Chorus

|--------------------------------------------------------------------------------|
|--------------------------------------------------------------------------------|
|--------------------------------------------------------------------------------|
|--------------------------------------------------------------------------------|
|--------------------------------------------------------------------------------|
|-7------10--9--10--3-----10--9--10--7-------10-- 9--10--3-----5-----------------|
|-5-------8--7---8--1------8--7---8--5--------8---7---8--1-----3-----------------|

Bridge

|-------------------------------------------------|
|-------------------------------------------------|
|-------------------------------------------------|
|-------------------------------------------------|
|-------------------------------------------------|
|-77777--77777------------------------------------|
|-55555--55555------------------------------------|

| /  slide up
| \  slide down
| h  hammer-on
| p  pull-off
| ~  vibrato
| +  harmonic
| x  Mute note

Hope this is close enough for you guys. Some of the stuff is hard to hear.

Any comments, suggestions and hate mail to: saltmakesmecough@yahoo.co.uk
Comments