Lacuna Coil - Swamped Chords & Tabs

 

Swamped Chords & Tabs

Lacuna Coil Chords & Tabs

Version: 3 Type: Tab 0 ratings
1 star 2 stars 3 stars 4 stars 5 stars
comments

Swamped Tab

Song:Swamped
Band:Lacuna Coil
Album:Comalies
Transcribed by:Matt Tompkins
Key:
~ = hold note
. = Palm mute
h = hammer on 
p = pull off
/ = slide down
\ = slide up

Tuning - Drop D

Intro:

Same as the verse but backwards.

Bridge: x8
|---------------------------|------|
|---------------------------|------|
|---------------------------|------|
|--2----3p2----2-2-3p2------|--2~--|  Fade into Verse
|--2-22-3p2-22-2-2-3p2-222--|--2~--|
|--2-22-3p2-22-2-2-3p2-222--|--2~--|
PM   ..     ..         ...

Verse: x6
|----------------------------------------------------------------------|
|----------------------------------------------------------------------|
|----------------------------------------------------------------------|
|----------------------------------------------------------------------|
|--7--7-7-\5-5--/8-8-8-8--8\7-7---7--7-7-\5-5--/11-11-11-11--11h12-11--|
|----------------------------------------------------------------------|

Chorus:

Guitar 1 x2
|------------------|
|------------------|
|------------------|
|--5~~-2~~-5~~-7~~-|
|--5~~-2~~-5~~-7~~-|
|--3~~-0~~-3~~-5~~-|
[ Tab from: http://www.guitartabs.cc/tabs/l/lacuna_coil/swamped_tab_ver_3.html ]
Guitar 2 x4
|------------2~------------|
|--3~-0-2-0------0h2p0-2/3-|
|--------------------------|
|--------------------------|
|--------------------------|
|--------------------------|

Bridge: x4

Verse: x6

Chorus:
Guitar 1 x4
Guitar 2 x8

Bridge: x8

Interlude:

Guitar 1 x3                      End On This
|------------------------------|-----------|
|------------------------------|-----------|
|------------------------------|-----------|
|------2h3-3-2-----2h3---------|--2h3-3-2--|
|--22--2h3-3-2--22-2h3-222222--|--2h3-3-2--|
|--22--2h3-3-2--22-2h3-222222--|--2h3-3-2--|
PM ..           ..     ......

Guitar 2
|------------------------------|
|------------------------------|
|------------------------------|
|-------------------------2----|  Repeat both riffs for both guitars 3 times.
|--22---------------------2----|  FOR GUITAR 2 = on the second time hit the 
|--22---------------------2----|  barred 2s twice. 3rd time it is twice but 
PM ..                             there is a pause.

Chorus:
Guitar 1 x5
Guitar 2 x10

Fade Out With This:
|------|
|------|
|------|
|--2~--
|--2~--
|--2~--

Outro:
Same as intro

Well there it is. I know that this song is played on a 7 string but i dont have one so
i tabbed it out for a 6 string. This tab is 99% correct so rate it high.
If you have any questions and/or comments E-mail me at Pickslide316@aol.com   
--ENJOY--
Comments