Lacuna Coil - Stars Chords & Tabs

 

Stars Chords & Tabs

Lacuna Coil Chords & Tabs

Version: 1 Type: Bass Tab 0 ratings
1 star 2 stars 3 stars 4 stars 5 stars
comments

Stars Bass Tab

Intro:
|---------------------------|
|---------------------------|
|-4--3----------1--4--3-----|
|-------11-111----------1---| 2x
|---------------------------|

|---------------------------|
|---------------------------|
|---------------1--4--3-----|
|-------11-111----------1---| 2x
|-2--1----------------------|
[ Tab from: http://www.guitartabs.cc/tabs/l/lacuna_coil/stars_btab.html ]
Verse:
|---------------------------------------------------|
|---------------------------------------------------|
|------------1--4--3------4--3---------1--4--3------|
|-1------------------111--------11-111---------1-1--|
|---------------------------------------------------|

PreChorus:
|-------------------------|
|-------1--1--------------|
|-4--3--------1--4--3-----| 2x
|----------------------1--|
|-------------------------|

Chorus:
|-------------------------|
|-------------------------|
|-------------------------|
|----------6--6--4--3-----| 2x
|-2--1--4--------------1--|

Verse

PreChorus 2x

Chorus 2x

Interlude:
|--------------|
|--------------|
|--------------| If there's any bass playin, then he plays this... 
|-1-(let ring)-| 2x
|--------------|
Comments