Lacuna Coil - Soul Into Hades Chords & Tabs

 

Soul Into Hades Chords & Tabs

Lacuna Coil Chords & Tabs

Version: 1 Type: Bass Tab 0 ratings
1 star 2 stars 3 stars 4 stars 5 stars
comments

Soul Into Hades Bass Tab

Intro:
|------------------------|
|------------------------|
|------------------------|
|-5----55-55----55555555-|
|------------------------|

Verse:
|-------------------------------|
|-------------------------------|
|-------------------------------|
|-5------1------5------1-111111-|
|-------------------------------|

|-----------------------------------|
|---------------7-------------(-3-)-|
|--------------7-7------------(3-3)-| 2x
|-5555555555555---1111111111111111--|
|-----------------------------------|

|-----------------------------------------------------------------------------|
|-----------------------------------------------------------------------------|
|-----------------------------------------------------------------------------|
|-5-55555-55--5-55555-55-333333333333333-1-11111-11-1-11111-11-00000003333333-|
|-----------------------------------------------------------------------------|

Then play the whole verse again (in the first part w/ some variations...check out yourself)

Interlude:
|------------------------------------------------------------------------------------|
|------------------------------------------------------------------------------------|
|------------------------------------------------------------------------------------|
|-8-88888-88-8-88888-88-6-66666-66-6-66666-66-4-44444-44-4-44444-44-3333333366666666-|
|------------------------------------------------------------------------------------|

|--------------|
|--------------|
|--------------|
|-5-(let ring)-|
|--------------|
[ Tab from: http://www.guitartabs.cc/tabs/l/lacuna_coil/soul_into_hades_btab.html ]
|-------------------------|
|-----------------------2-|
|-------5-3---------5-3---|
|-5-3-1-----0-5-3-1-------|
|-------------------------|

|-------------------------------------------------------------|
|--------------------------------------------------------2222-|
|----------------5555-3333---------------------5555-3333------|
|-5555-3333-1111-----------0000-5555-3333-1111----------------|
|-------------------------------------------------------------|

|-------------------------|
|-----------------------2-|
|-------5-3---------5-3---|
|-5-3-1-----0-5-3-1-------|
|-------------------------|

|-----------------------------------|
|---------------7-------------(-3-)-|
|--------------7-7------------(3-3)-| 2x
|-5555555555555---1111111111111111--|
|-----------------------------------|

|-----------------------------------------------------------------------------|
|-----------------------------------------------------------------------------|
|-----------------------------------------------------------------------------|
|-5-55555-55--5-55555-55-333333333333333-1-11111-11-1-11111-11-00000003333333-|
|-----------------------------------------------------------------------------|

|------------------------------------------------------------------------------------|
|------------------------------------------------------------------------------------|
|---------------------------------------------5-55555-55-5-55555-55------------------| 2x
|-5-55555-55-5-55555-55-1-11111-11-1-11111-11-----------------------1111111133333333-|
|------------------------------------------------------------------------------------|

|--------------------------------|
|--------------------------------|
|--------------------------------|
|-5-(let ring)---55-----55-----5-|
|----------------------0---------|
Comments