Lacuna Coil - Self Deception Chords & Tabs

 

Self Deception Chords & Tabs

Lacuna Coil Chords & Tabs

Version: 1 Type: Tab 0 ratings
1 star 2 stars 3 stars 4 stars 5 stars
comments

Self Deception Tab

"Self Deception"

Tabbed by Sergio - dearaujo7@hotmail.com

Tuning  Drop D DADgbe 


[INTRO]

e|--------------------------------------------------------------||
b|--------------------------------------------------------------||
g|----------------------------5------------------------------5--||    X2
D|--5---5---5---7-7----8-8------8----8---8---8---7-7---8-8------||   
A|----5---5---5------5------5------5---5---5--------5------5----||
D|--------------------------------------------------------------||

[BRIDGE]

Guitar 1 
e|-------------------------------------------||
b|-------------------------------------------||  X2
g|----------------------8--8-8-8-------------||   
D|--5--5-5-5--8--8-8-8--8--8-8-8--3--3-3-3---||
A|--5--5-5-5--8--8-8-8--6--6-6-6--3--3-3-3---||
D|--5--5-5-5--8--8-8-8------------3--3-3-3---||


Guitar 2 
e|------------------------------------------|--------------------------------||
b|---13---11--11---10---10---11--11---11-|--13---11--11---10--10---8--8---8--||  X2
g|--0----0-------0---------0--------0----|-0---0--------0--------0------0----||  
D|------------------------------------------|--------------------------------|| 
A|------------------------------------------|--------------------------------||
D|------------------------------------------|--------------------------------||


[VERSE]

Guitar 1 
e|-----------------------------------------------------------------------||
b|-----------------------------------------------------------------------||
g|-----------------------------------------------------------------------|| X2
D|-------------------------------------8-8-8-8-8-8-8-8-------------------|| 
A|--5-5-5-5-5-5-5-5---8-8-8-8-8-8-8-8--6-6-6-6-6-6-6-6--3-3-3-3-3-3-3-3--||
D|--5-5-5-5-5-5-5-5---8-8-8-8-8-8-8-8-------------------3-3-3-3-3-3-3-3--||


Guitar 2 /w wah, after 1st time Verse Guitar 1
e|------------------------------------------||
b|----------------------3-/4-4-4--4-/6-6-6--||
g|-------------3-/5-5-5---------------------||Comes in after 1st time above.
D|--3-/5--5-5\------------------------------||
A|------------------------------------------||
D|------------------------------------------||

Guitar 2 
e|------------------------------------------|---------------------------------------||
b|----13---11---11---10---10---11---11---11-|---13---11---11---10---10---8---8---8--||  X1
g|--0----0---------0---------0---------0----|-0----0---------0---------0-------0----||  
D|------------------------------------------|---------------------------------------|| 
A|------------------------------------------|---------------------------------------||
D|------------------------------------------|---------------------------------------||

VERSE]

Guitar 1 
e|-----------------------------------------------------------------------||
b|-----------------------------------------------------------------------||
g|-----------------------------------------------------------------------|| X2
D|-------------------------------------8-8-8-8-8-8-8-8-------------------|| 
A|--5-5-5-5-5-5-5-5---8-8-8-8-8-8-8-8--6-6-6-6-6-6-6-6--3-3-3-3-3-3-3-3--||
D|--5-5-5-5-5-5-5-5---8-8-8-8-8-8-8-8-------------------3-3-3-3-3-3-3-3--||


Guitar 2 /w wah, after 1st time Verse Guitar 1
e|------------------------------------------||
b|----------------------3-/4-4-4--4-/6-6-6--||
g|-------------3-/5-5-5---------------------||Comes in after 1st time above.
D|--3-/5--5-5\------------------------------||
A|------------------------------------------||
D|------------------------------------------||


Guitar 2 
e|------------------------------------------|---------------------------------------||
b|----13---11---11---10---10---11---11---11-|---13---11---11---10---10---8---8---8--||  X2
g|--0----0---------0---------0---------0----|-0----0---------0---------0-------0----||  
D|------------------------------------------|---------------------------------------|| 
A|------------------------------------------|---------------------------------------||
D|------------------------------------------|---------------------------------------||


[CHORUS]

Guitar 1 
e|--------------------------|--------------------------||
b|--------------------------|--------------------------||
g|------5-------------------|------5-------------------||  x2
D|--5---5--0-3--0-1--1-1-0--|--5---5--0-3--0-1--1-1-0--||
A|--5---3--0-3--0-1--1-1-0--|--5---3--0-3--0-1--1-1-0--||
D|--5------0-3--0-1--1-1-0--|--5------0-3--0-1--1-1-0--||


Guitar 2 
e|--------------------------------|---------------------------------||
b|----------4p3-----1-3/4-3-------|----------4p3-----1-3/4-3--------||
g|--0-2h3-0----0-2----------0-0-0-|--0-2h3-0----0-3----------0-0-0--||
D|--------------------------------|---------------------------------|| X2
A|--------------------------------|---------------------------------||
D|--------------------------------|---------------------------------||


[INTERLUDE]

e|----------------------||
b|----------------------||
g|----------------------||
D|---0-8-5--0-7-5--0-5--||
A|----------------------||
D|----------------------||
P.M. .      .      . 
[ Tab from: http://www.guitartabs.cc/tabs/l/lacuna_coil/self_deception_tab.html ]
Guitar 1 
e|-------------------------------------------||
b|-------------------------------------------||  X2
g|----------------------8--8-8-8-------------||   
D|--5--5-5-5--8--8-8-8--8--8-8-8--3--3-3-3---||
A|--5--5-5-5--8--8-8-8--6--6-6-6--3--3-3-3---||
D|--5--5-5-5--8--8-8-8------------3--3-3-3---||

Guitar 2 
e|------------------------------------------|---------------------------------------||
b|----13---11---11---10---10---11---11---11-|---13---11---11---10---10---8---8---8--||  X2
g|--0----0---------0---------0---------0----|-0----0---------0---------0-------0----||  
D|------------------------------------------|---------------------------------------|| 
A|------------------------------------------|---------------------------------------||
D|------------------------------------------|---------------------------------------||

VERSE]

Guitar 1 
e|-----------------------------------------------------------------------||
b|-----------------------------------------------------------------------||
g|-----------------------------------------------------------------------|| X2
D|-------------------------------------8-8-8-8-8-8-8-8-------------------|| 
A|--5-5-5-5-5-5-5-5---8-8-8-8-8-8-8-8--6-6-6-6-6-6-6-6--3-3-3-3-3-3-3-3--||
D|--5-5-5-5-5-5-5-5---8-8-8-8-8-8-8-8-------------------3-3-3-3-3-3-3-3--||


Guitar 2 /w wah, after 1st time Verse Guitar 1
e|------------------------------------------||
b|----------------------3-/4-4-4--4-/6-6-6--||
g|-------------3-/5-5-5---------------------||Comes in after 1st time above.
D|--3-/5--5-5\------------------------------||
A|------------------------------------------||
D|------------------------------------------||

Guitar 2 
e|------------------------------------------|---------------------------------------||
b|----13---11---11---10---10---11---11---11-|---13---11---11---10---10---8---8---8--||  X2
g|--0----0---------0---------0---------0----|-0----0---------0---------0-------0----||  
D|------------------------------------------|---------------------------------------|| 
A|------------------------------------------|---------------------------------------||
D|------------------------------------------|---------------------------------------||

CHORUS]

Guitar 1 
e|--------------------------|--------------------------||
b|--------------------------|--------------------------||
g|------5-------------------|------5-------------------||  x2
D|--5---5--0-3--0-1--1-1-0--|--5---5--0-3--0-1--1-1-0--||
A|--5---3--0-3--0-1--1-1-0--|--5---3--0-3--0-1--1-1-0--||
D|--5------0-3--0-1--1-1-0--|--5------0-3--0-1--1-1-0--||


Guitar 2 
e|--------------------------------|---------------------------------||
b|----------4p3-----1-3/4-3-------|----------4p3-----1-3/4-3--------||
g|--0-2h3-0----0-2----------0-0-0-|--0-2h3-0----0-3----------0-0-0--||
D|--------------------------------|---------------------------------|| X2
A|--------------------------------|---------------------------------||
D|--------------------------------|---------------------------------||


[BRIDGE2]

Guitar 1
e|-------------------------------------------||
b|-------------------------------------------||
g|-------------------------------------------||    x6
D|---0-8-5--0-7-5--0-10--0-8-5--0-7-5--0-5---||
A|-------------------------------------------||
D|-------------------------------------------||
P.M. .      .      .     .      .      .

After the 2 times guitar 1 ,guitar 2 plays quite the same 1 octave higher 4 times


Guitar 2
e|----6--3----5-3----8-----6-3----5-3----3--||
b|------------------------------------------||
g|------------------------------------------|| X4   After 2 times above join in
D|------------------------------------------||        
A|------------------------------------------||        
D|------------------------------------------||

CHORUS]

Guitar 1 
e|--------------------------|--------------------------||
b|--------------------------|--------------------------||
g|------5-------------------|------5-------------------||  x4
D|--5---5--0-3--0-1--1-1-0--|--5---5--0-3--0-1--1-1-0--||
A|--5---3--0-3--0-1--1-1-0--|--5---3--0-3--0-1--1-1-0--||
D|--5------0-3--0-1--1-1-0--|--5------0-3--0-1--1-1-0--||


Guitar 2 
e|--------------------------------|---------------------------------||
b|----------4p3-----1-3/4-3-------|----------4p3-----1-3/4-3--------||
g|--0-2h3-0----0-2----------0-0-0-|--0-2h3-0----0-3----------0-0-0--||
D|--------------------------------|---------------------------------|| X4
A|--------------------------------|---------------------------------||
D|--------------------------------|---------------------------------||

(the last 2 times a third guitar plays the same riff, so that it's
 louder, but that's just a recording thing.I guess, that live,    
 the thirst guitar plays also the 2nd Riff.)                      

[INTERLUDE]

e|----------------------||
b|----------------------||
g|----------------------||
D|---0-8-5--0-7-5--0-5--||
A|----------------------||
D|----------------------||
P.M. .      .      . 

[OUTRO]

e|------||
b|------||
g|------||
D|--5\--||
A|--5\--||
D|--5\--||


ORDER:

INTRO
BRIDGE
VERSE
BRIDGE (only Guitar 2 and only 1 times)
VERSE
BRIDGE (only Guitar 2)
CHORUS
INTERLUDE
BRIDGE X2
VERSE 
BRIDGE (only Guitar 2)
CHORUS X2
BRIDGE2
CHORUS X2
INTERLUDE
OUTRO

Please Vote!
Comments