Lacuna Coil - Self Deception Chords & Tabs

 

Self Deception Chords & Tabs

Lacuna Coil Chords & Tabs

Version: 1 Type: Bass Tab 0 ratings
1 star 2 stars 3 stars 4 stars 5 stars
comments

Self Deception Bass Tab

Intro:
|---------------|
|---------------|
|---------------| 2x
|-3-----------1-|
|-----1---4-----|

Verse:
|------------------------------------|
|------------------------------------|
|------------------------------------| 2x
|-3333333-------------------11111111-|
|---------11111111-44444444----------|

Bridge:
|---------------|
|---------------|
|-----3---6-----|
|-3-----------1-|
|---------------|

Verse 2x
[ Tab from: http://www.guitartabs.cc/tabs/l/lacuna_coil/self_deception_btab.html ]
Bridge2:
|-----------------------------------|
|-----------------------------------|
|-----3-------------------3---6-----|
|-3-----------1---333-333---------1-|
|---------4-------------------------|

Chorus:
|-------------------------------|
|-------------------------------|
|-------------------------------| 2x
|-3-------1-------3-------1-----|
|-----1-------4-------1-------3-|

Intro 2x

Verse 2x

Bridge2

Chorus 4x

Interlude:
|------|
|------|
|------| 8x
|-3333-|
|------|

|--------|
|--------|
|--------| 8x
|-3--33--|
|--------|


Chorus 4x

End:
|----|
|----|
|----|
|----|
Comments