Lacuna Coil - Reverie Chords & Tabs

 

Reverie Chords & Tabs

Lacuna Coil Chords & Tabs

Version: 1 Type: Bass Tab 0 ratings
1 star 2 stars 3 stars 4 stars 5 stars
comments

Reverie Bass Tab

--------------------|
|--------------------|
|-5------------------| 4x
|-----5---3---1--(0)-|
|--------------------|

|----------------------------------|
|----------------------------------|
|----------------------------------|
|-6--------6--------3--------1---5-|
|----------------------------------|

|----------------|
|----------------|
|----------------| 4x
|-7---3---2---0--|
|----------------|

|--------------|
|--------------|
|-----------3--| 4x
|-0---2---3----|
|--------------|

|-------------------------------|
|-------------------------------|
|-------------------------------|
|-7---2---3---0---7---2---3---5-|
|-------------------------------|

The whole thing again

|--------------|
|--------------|
|-5-(let ring)-|
|--------------|
|--------------|
[ Tab from: http://www.guitartabs.cc/tabs/l/lacuna_coil/reverie_btab.html ]
|-------------------------------------------------------------|
|-------------------------------------------------------------|
|-------------------------------------------------------------|
|-1----6---5---3---1-----6---5---3---1-----66----5-----33-----|
|-------------------------------------------------------------|

|----------------|
|----------------|
|----------------| 4x
|-7---3---2---0--|
|----------------|

|--------------|
|--------------|
|-----------3--| 4x
|-0---2---3----|
|--------------|

|-------------------------------|
|-------------------------------|
|-------------------------------| 2x
|-7---2---3---0---7---2---3---5-|
|-------------------------------|

|--------------|
|--------------|
|-5-(let ring)-|
|--------------|
|--------------|

|-------------------------|
|-------------------------|
|-------------------------|
|-3333333333333333-3-33-3-|
|-------------------------|

|-------------------------------------------------------------|
|-------------------------------------------------------------|
|-------------------------------------------------------------|
|-1----6---5---3---1-----6---5---3--(fade out with this riff)-|
|-------------------------------------------------------------|
Comments