Lacuna Coil - No Need To Explain Chords & Tabs

 

No Need To Explain Chords & Tabs

Lacuna Coil Chords & Tabs

Version: 1 Type: Tab 0 ratings
1 star 2 stars 3 stars 4 stars 5 stars
comments

No Need To Explain Tab

   
Band- Lacuna Coil
Song- No Need To Explain

Standard Tuning EADGBe

Riff A                                 Riff B
E|----------------------------------|  |--------------------------|
B|----------------------------------|  |--------------------------|
G|----------------------------------|  |--------------------------|
D|-7---7----------------------------|  |--------------------------|
A|-5---5---8---8----3---3---5---5---|  |--3--3--3--3--3--3--3--3--|
E|---------6---6----1---1---3---3---|  |--1--1--1--1--1--1--1--1--|

Riff C                         Riff D
E|--------------------------|  |------------------------------------|
B|--------------------------|  |------------------------------------|
G|--------------------------|  |--7-7-7-7-5-5-5-5-------------------|
D|--------------------------|  |-------------------7-7-7-7-8-8-8-8--|
A|--5--5--5--5--5--5--5--5--|  |--5-5-5-5-3-3-3-3-------------------|
E|--3--3--3--3--3--3--3--3--|  |-------------------5-5-5-5-6-6-6-6--|

Riff E                         Riff F              
|---------------------------|  |----------------|
|---------------------------|  |----------------|
|-----7-----7-----7-----7---|  |----------------|
|---------------------------|  |--7---5---------|
|--5-----5-----5-----5------|  |--5---3---3---5-|
|---------------------------|  |----------1---3-|
[ Tab from: http://www.guitartabs.cc/tabs/l/lacuna_coil/no_need_to_explain_tab.html ]
Riff G				 End
|------------------------------------------------|  |-----|
|------------------------------------------------|  |-----|
|-7--7--7--7--9--9--9--9-10-10-10-10-12-12-12-12-|  |--7--|
|------------------------------------------------|  |--7--|
|-5--5--5--5--7--7--7--7--8--8--8--8-10-10-10-10-|  |--5--|
|------------------------------------------------|  |-----|

Solo
|--------------|
|--------------|
|--7/9--10--7--|
|--------------|
|--------------|
|--------------|

|--------------------------------------|
|--------------------------------------|
|--7/9--10--7-----5---5-----7--7---9-7-|
|--------------------------------------|
|--------------------------------------|
|--------------------------------------|

|--------------------------------------|
|--------------------------------13----|
|----9--10--7----12--12---14--14----14-|
|--------------------------------------|
|--------------------------------------|
|--------------------------------------|
                                                     
|--------------------------------------|
|--------------------------------------|
|-9p10-10--9--7--9-9p10--10--9--7---12-|
|--------------------------------------|
|--------------------------------------|
|--------------------------------------|

|--------------------------------------|
|--------------------------------------|
|-9p10-10--9--7--9-9p10--10--9--7---12-|
|--------------------------------------|
|--------------------------------------|
|--------------------------------------|

Ax8
Bx2
Cx2
Bx2
Cx2
Dx4
Ex3
Solo
Bx2
Cx2
Bx2
Cx2
Dx4
Fx4
Gx4
Ex8
End
Comments