Lacuna Coil - No Need To Explain Chords & Tabs

 

No Need To Explain Chords & Tabs

Lacuna Coil Chords & Tabs

Version: 1 Type: Bass Tab 0 ratings
1 star 2 stars 3 stars 4 stars 5 stars
comments

No Need To Explain Bass Tab

Intro:
|-------------------------|
|-------------------3--5--|
|-5--1--------5--1--------|
|-------1--3--------------|
|-------------------------|

|---------------------------------|
|---------------------------------|
|-5-5-5-5-1-1-1-1-----------------|4x
|-----------------1-1-1-1-3-3-3-3-|
|---------------------------------|

Verse:
|-----------------------------|
|-----------------------------|
|-5---111---------------------| 4x
|----------3-3-3--1/333-1/333-|
|-----------------------------|

you can play the verse like this too:
|-----------------------------|
|----------5-5-5--3/555-3/555-|
|-5---111---------------------| 4x
|-----------------------------|
|-----------------------------|

Bridge:
|---------------------------------------------------|
|---------------------------------------------------|
|---------------------------------------------------| 2x 
|-6-6-6-6-6-6-6-6-6-6-6-6-6/3--33333-33-3--33333-33-|(2nd Time: last 3 slide to 1)
|---------------------------------------------------|
[ Tab from: http://www.guitartabs.cc/tabs/l/lacuna_coil/no_need_to_explain_btab.html ]
Chorus:
|---------------------------------|
|---7---7---5---5---2---2---3---3-|
|-5---5---3---3---0---0---1---1---| 4x
|---------------------------------|
|---------------------------------|

Interlude1:
|---------------7-|
|-----------------|
|-5-5-5-5-5-5-5---| 4x
|-----------------|
|-----------------|

|---------------------------------|
|---------------------------------|
|-5-5-5-5-1-1-1-1-----------------|4x
|-----------------1-1-1-1-3-3-3-3-|
|---------------------------------|

Bridge 2x

Chorus 4x

Verse 4x

Interlude2:
|-----------------------------------------------------------------|
|---------2-2-2-2-3-3-3-3-5-5-5-5---------------------------------|
|-5-5-5-5-------------------------5-5-5-5-3-3-3-3-0-0-0-0-1-1-1-1-| 2x
|-----------------------------------------------------------------|
|-----------------------------------------------------------------|

|---------|
|---------|
|-5-5-5-5-| 17x (get slower after 9x)
|---------|
|---------|

End:
|--------------|
|--------------|
|-5-(let ring)-|
|--------------|
|--------------|
Comments