Lacuna Coil - My Wings Chords & Tabs

 

My Wings Chords & Tabs

Lacuna Coil Chords & Tabs

Version: 1 Type: Bass Tab 0 ratings
1 star 2 stars 3 stars 4 stars 5 stars
comments

My Wings Bass Tab

Intro/Verse
|---------------------|
|---------------------|
|---------------------| 4x
|-----5---1-----------|
|-3-----------1-1-1-1-|

Bridge:
|-----------------------------------------------------|
|--------------2--22-22-222-3--33-33-333-5--55-55-555-|
|-5--55-55-555----------------------------------------| 2x
|-----------------------------------------------------|
|-----------------------------------------------------|
[ Tab from: http://www.guitartabs.cc/tabs/l/lacuna_coil/my_wings_btab.html ]
|--------------------------------------|
|----------222222222333333333555555555-|
|-555555555----------------------------| 2x
|--------------------------------------|
|--------------------------------------|

Chorus
|-----------------------------|
|-----------------------------|
|-55-------------55-----3-----| 4x
|-----5--11--/6------5--------|
|--------------------------4--|
That are two 1s, not 11

Verse 4x

Bridge

Chorus 4x

Interlude:
|--------------|
|--------------|
|-5-(let ring)-|
|--------------|
|--------------|

|----------|
|----------|
|----------| 4x
|-55555555-|
|----------|

Chorus 4x

End: 
|---|
|---|
|-5-|
|---|
|---|
Comments