Lacuna Coil - Heavens A Lie Chords & Tabs

 

Heavens A Lie Chords & Tabs

Lacuna Coil Chords & Tabs

Version: 4 Type: Tab 0 ratings
1 star 2 stars 3 stars 4 stars 5 stars
comments

Heavens A Lie Tab

                             lacuna coil

                            heavens a lie

 now im only 12 years old sooooo   but i know this is right

tuning  low to high---B E A D G B


intro  repeat  3 times (i think) also do in main riff and chors


guitar 1
  B----5h8-8-7--5---5h8--8-7--5-5//10-10-10------------------------|
  G----------------------------------------------------------------|
  D----------------------------------------------------------------|
  A----------------------------------------------------------------|
  E----------------------------------------------------------------|
  B----------------------------------------------------------------|

    main/chors     guitar 2
  B---------------------------------------------------------------------|
  G---------------------------------------------------------------------|
  D--2-------------7----5-/---7-------2---------7--5----4---------------|
  A--2------3------7----5-/---7-------2----3----7--5----4---------------|
  E--0------3------5----3-/---5-------0----3----5--3----2---------------|
  B---------1------------------------------1----------------------------|
[ Tab from: http://www.guitartabs.cc/tabs/l/lacuna_coil/heavens_a_lie_tab_ver_4.html ]
   verse    both guitars
  B----------------------------------------------------------------------|
  G----------------------------------------------------------------------|
  D------2-2-2-2-2-------------------7-7-7-7-7---5-5-5-5-5---7-7-7-------|
  A------2-2-2-2-2---3-3-3-3-3-------7-7-7-7-7---5-5-5-5-5---7-7-7-------|
  E------0-0-0-0-0---3-3-3-3-3-------5-5-5-5-5---3-3-3-3-3---5-5-5-------|
  B------------------1-1-1-1-1-------------------------------------------|
    pm   . . . . .   . . . . .       . . . . .   . . . . .   . . .


     pre chors/ break
                            both guitars
   B----------------------------------------------------------------------|
   G----------------------------------------------------------------------|
   D----------------------------------------------------------------------|
   A----9h10 -10-10-10-10p9--9h10-10-10-10-10p9//-7-----------------------|
   E----------------------------------------------------------------------|
   B----------------------------------------------------------------------|

   B-----------------------------------------------------------------------|
   G-----------------------------------------------------------------------|
   D-----------------------------------------------------------------------|
   A----9h10 -10-10-10-10p9--9h10-10-10-10-10//-12-------------------------|
   E-----------------------------------------------------------------------|
   B-----------------------------------------------------------------------|

      song order

      intro
      main/chors riff (guitar 1)and intro(guitar 2)
      verse
      pre chors/ break
      main/chors riff (guitar 1)and intro(guitar 2)
      verse
      pre chors/ break
      main/chors riff (guitar 1)and intro(guitar 2)
      pre chors/break
      main riff/chors (guitar 1)and intro(guitar 2)

welll thats it    now rate this tab!!!!  im only 12 but im sure this is 99%
right
                              sooo there you go
Comments