Lacuna Coil - Heavens A Lie Chords & Tabs

 

Heavens A Lie Chords & Tabs

Lacuna Coil Chords & Tabs

Version: 3 Type: Tab 0 ratings
1 star 2 stars 3 stars 4 stars 5 stars
comments

Heavens A Lie Tab

Heaven's A Lie
Lacuna Coil
Transcribed by krazykristina_420@yahoo.com
Transcribed to Standard Tuned 6 String from 7 string guitars

Intro
E [-------------------------------------------------]
B [-------------------------------------------------]
G [---11-12-12-11-9---11-12-12-11-9-12/14-14-14-14--]
D [-------------------------------------------------]
A [-------------------------------------------------]
E [-------------------------------------------------]

	Main Riff/Chorus
E [------------------------------------------]
B [------------------------------------------]
G [------------------------------------------]
D [------5-------------------5---------------]
A [--2---3-------5-------2---3-------5-------]
E [--0---3---5---3---5---0---3---5---3---2---]
[ Tab from: http://www.guitartabs.cc/tabs/l/lacuna_coil/heavens_a_lie_tab_ver_3.html ]
	Verse Riff
E [---------------------------------------------------------------------]
B [---------------------------------------------------------------------]
G [---------------------------------------------------------------------]
D [----------------55555-44444-----------------------55555-44444--------]
A [--22222-55555---33333-22222--55-4---22222-77777---33333-22222--55-4--]
E [--00000-33333---33333-22222--33-2---00000-55555---33333-22222--33-2--]
    Pm............................     .............................

Chorus

	Interlude (clean tone)

E [--------------------------------------------]
B [--------------------------------------------]
G [--11-12-12-11-9-11---12-14-12-11------------]
D [--------------------------------------------]
A [--------------------------------------------]
E [--------------------------------------------]

Verse Riff
Chorus until end, then play intro again
Comments