Lacuna Coil - Heavens A Lie Chords & Tabs

 

Heavens A Lie Chords & Tabs

Lacuna Coil Chords & Tabs

Version: 2 Type: Tab 0 ratings
1 star 2 stars 3 stars 4 stars 5 stars
comments

Heavens A Lie Tab

   
Lacuna Coil-Heaven's a Lie
Tabbed By Zinaron
Email-MorbidMetallicaAngel@Yahoo.com


Tuning-EADGbe
guitar 1
I saw this on my songbook.com and figure i'd try to tab it out.
I Put the song in order the best i could and i believe it is mostily correct
so i hope you enjoy it
e------------------------5-5-5-5--
b---5-8-8-7-5--7-8-8-7-5---------- x9
g---------------------------------
d---------------------------------
a---------------------------------
e---------------------------------


guitar 2
e-------------------------------
b-------------------------------
g----5---2------------5--2------
d-2--5---2---5--4--2--5--2--5--4 x2
a-2--3---0---5--4--2--3--0--5--4
e-0----------3--2--0--------3--2

both guitars

e-----------------------------------------------------------------------
b-----------------------------------------------------------------------
g------------------------------------------4-4-4------------------------
d-----------5-5-5-5-5--2-2-2-2-2-----------4-4-4-------4-4-4-------4-4-4 x2
a-2-2-2-2-2-3-3-3-3-3--0-0-0-0-0-5-5-5-5-5-2-2-2-5-5-5-4-4-4-5-5-5-4-4-4
e-0-0-0-0-0----------------------3-3-3-3-3-------3-3-3-2-2-2-3-3-3-2-2-2


guitar 1
e---------------------------------------------------
b-8-8-8-7-7-5-5-8-8-8-7-7-5-5-8-8-8/10-10-10-10-10-8 x1
g--------------------------------------------------- 
d---------------------------------------------------
a---------------------------------------------------
e---------------------------------------------------


guitar 1
e------------------------5-5-5-5--
b---5-8-8-7-5--7-8-8-7-5----------
g---------------------------------
d---------------------------------x4
a---------------------------------
e---------------------------------

guitar 2
e----------------------------------
b----------------------------------
g----5---2------------5--2---------
d-2--5---2---5--4--2--5--2--5--4---
a-2--3---0---5--4--2--3--0--5--4--- x2
e-0----------3--2--0--------3--2---

both guitars

e-----------------------------------------------------------------------
b-----------------------------------------------------------------------
g------------------------------------------4-4-4------------------------
d-----------5-5-5-5-5--2-2-2-2-2-----------4-4-4-------4-4-4-------4-4-4 x2
a-2-2-2-2-2-3-3-3-3-3--0-0-0-0-0-5-5-5-5-5-2-2-2-5-5-5-4-4-4-5-5-5-4-4-4
e-0-0-0-0-0----------------------3-3-3-3-3-------3-3-3-2-2-2-3-3-3-2-2-2

p.m...........................................   .........
[ Tab from: http://www.guitartabs.cc/tabs/l/lacuna_coil/heavens_a_lie_tab_ver_2.html ]
guitar 1
e---------------------------------------------------
b-8-8-8-7-7-5-5-8-8-8-7-7-5-5-8-8-8/10-10-10-10-10-8
g---------------------------------------------------x1
d---------------------------------------------------
a---------------------------------------------------
e---------------------------------------------------

guitar 1
e------------------------5-5-5-5--
b---5-8-8-7-5--7-8-8-7-5----------
g---------------------------------
d---------------------------------x4
a---------------------------------
e---------------------------------
guitar 2
e----------------------------------
b----------------------------------
g----5---2------------5--2---------
d-2--5---2---5--4--2--5--2--5--4--- x2
a-2--3---0---5--4--2--3--0--5--4---
e-0----------3--2--0--------3--2---

both guitars
e-----------------------------------------------------------------------
b-----------------------------------------------------------------------
g------------------------------------------4-4-4------------------------ x2
d-----------5-5-5-5-5--2-2-2-2-2-----------4-4-4-------4-4-4-------4-4-4
a-2-2-2-2-2-3-3-3-3-3--0-0-0-0-0-5-5-5-5-5-2-2-2-5-5-5-4-4-4-5-5-5-4-4-4
e-0-0-0-0-0----------------------3-3-3-3-3-------3-3-3-2-2-2-3-3-3-2-2-2

p.m...........................................   .........

guitar 1
e---------------------------------------------------
b-8-8-8-7-7-5-5-8-8-8-7-7-5-5-8-8-8/10-10-10-10-10-8
g--------------------------------------------------- x1
d--------------------------------------------------- 
a---------------------------------------------------
e---------------------------------------------------

guitar 1
e------------------------5-5-5-5--
b---5-8-8-7-5--7-8-8-7-5----------
g--------------------------------- x4
d---------------------------------
a---------------------------------
e---------------------------------

guitar 2
e----------------------------------
b----------------------------------
g----5---2------------5--2---------
d-2--5---2---5--4--2--5--2--5--4--- x2
a-2--3---0---5--4--2--3--0--5--4---
e-0----------3--2--0--------3--2---

guitar 1
e---------------------------------------------------
b-8-8-8-7-7-5-5-8-8-8-7-7-5-5-8-8-8/10-10-10-10-10-8
g---------------------------------------------------
d---------------------------------------------------
a---------------------------------------------------
e---------------------------------------------------

guitar 2
e----------------------------------
b----------------------------------
g----5---2------------5--2---------
d-2--5---2---5--4--2--5--2--5--4--2 x2
a-2--3---0---5--4--2--3--0--5--4--2
e-0----------3--2--0--------3--2--0

guitar 1
e------------------------5-5-5-5--
b---5-8-8-7-5--7-8-8-7-5---------- x8
g---------------------------------
d---------------------------------
a---------------------------------
e---------------------------------
Comments