Lacuna Coil - Distant Sun Chords & Tabs

 

Distant Sun Chords & Tabs

Lacuna Coil Chords & Tabs

Version: 1 Type: Bass Tab 0 ratings
1 star 2 stars 3 stars 4 stars 5 stars
comments

Distant Sun Bass Tab

Intro
|-------------------------|
|-------------------------|
|-------------------------|
|-2-----------2-----------|
|-------3--0--------2--0--|

Verse:
|----------------------------------------------------------|
|----------------------------------------------------------|
|----------------------------------------------------------| 2x
|-2-2-2-222-2-2----------------2-2-2-222-2-2---------------|
|----------------3-3-3--0-0-0-----------------2-2-2--0-0-0-|

Bridge 1:
|-------------------------|
|-------------------------|
|-------------------------| 1x
|-2-2-2-------5-5-5-4-4-4-|
|-------0-0-0-------------|

|-------------------------|
|-------------------------|
|-------------------4-4-4-|
|-2-2-2-------5-5-5-------|
|-------0-0-0-------------|

Chorus:
|---------------------------------|
|---------------------------------|
|---------------2-----------------|
|-2-4-5---4--5----2-4-5---4--5----|
|-------3---------------3-------0-|

Bridge 2 = Verse 2x
[ Tab from: http://www.guitartabs.cc/tabs/l/lacuna_coil/distant_sun_btab.html ]
Intro

Verse 2x

Interlude:
|-------------------------------------------------------------------|
|-------------------------------------------------------------------|
|-------------------55555----------22222-22222-22222-22222-44444444-|
|-22222-44444-55555-------44444444----------------------------------|
|-------------------------------------------------------------------|

|----------------------------------------------------------------|
|----------------------------------------------------------------|
|-------------------55555----------22222-22222-22222-22222-2/4-4-|
|-22222-44444-55555-------44444444-------------------------------|
|----------------------------------------------------------------|

|---------------------------|
|---------------------------|
|-------5----2-2-2-2--2/4-4-| 4x
|-2-4-5---4-----------------|
|---------------------------|

Bridge 1

Chorus 4x

End:
|--------------|
|--------------|
|--------------|
|-2-(let ring)-|
|--------------|
Comments