Lacuna Coil - Daylight Dancer Chords & Tabs

 

Daylight Dancer Chords & Tabs

Lacuna Coil Chords & Tabs

Version: 1 Type: Bass Tab 0 ratings
1 star 2 stars 3 stars 4 stars 5 stars
comments

Daylight Dancer Bass Tab

This is a very short song, it's a shame. It's a catchy bass tune!

G-------------------------------------------------|
D-------------------------------------------------|
A----4-4-4-4-4-4-4-4-4-4-4-4-4-4-4-4--------------|
E-------------------------------------------------|
B----2------2------2------2------2----------------|
intro and verses

G-------------------|
D-------------------|
A-------------------|
E---5----2----4-----|
B-------------------|
variation @ :32

[ Tab from: http://www.guitartabs.cc/tabs/l/lacuna_coil/daylight_dancer_btab.html ]
G-------------------------|
D-------------------------|
A-------------------------|
E---5---2---4-------------|
B------------------2------|
chorus
play this 3 times and then:
G-------------------------|
D-------------------------|
A------------------5------|
E---5---2---4-------------|
B-------------------------|


G---------------------------------|
D---------------------------------|
A---------------------------------|
E--2----0-------------------------|
B--------------0----2----1--------|
break @ 2:37
Comments