Lacuna Coil - Cold Heritage Chords & Tabs

 

Cold Heritage Chords & Tabs

Lacuna Coil Chords & Tabs

Version: 1 Type: Tab 0 ratings
1 star 2 stars 3 stars 4 stars 5 stars
comments

Cold Heritage Tab

Band- Lacuna Coil
Song- Cold Heritage

Guitar One (Intro/Verse/Main Riff) [0:07]
E-1--------1-----------------------------------------------------------------|
B----1--------1--------------------------------------------------------------|
G-------3--------------------------------------------------------------------|
D-----------------4----------------------------------------------------------|
A----------------------------------------------------------------------------|
E----------------------------------------------------------------------------|

That riff is played throughout the verse. I'm kind of lazy and don't feel like saying 
many times you play it, but you can listen and get the gist of it.

Guitar 2/Keyboard (Intro/Verse/Main Riff) [0:19] {It maybe a keyboard. I'm not 100% with this one}
E---------------------------------------------------------------------------|
B-11-13-11--9---------------------------------------------------------------|
G---------------------------------------------------------------------------|
D---------------------------------------------------------------------------|
A---------------------------------------------------------------------------|
E---------------------------------------------------------------------------|

Guitar 1 (Chorus 1) [1:07] {This parts odd since the production made the guitars a big wall of sound...)
[ Tab from: http://www.guitartabs.cc/tabs/l/lacuna_coil/cold_heritage_tab.html ]
E-------------------------------------------------------------------------------|
B-------------------------------------------------------------------------------|
G-------------------------------------------------------------------------------|
D--10---------------------------------------------------------------------------|
A--8----------------------------------------------------------------------------|
E-------------------------------------------------------------------------------|


Guitar 2 (Chorus 1) [1:13] {This repeated later on in the song, but it's much harder to 
this time, although I'm 100% this is it}

E-------------------------------------------------------------------------------|
B-------------------------------------------------------------------------------|
G-------------------------------------------------------------------------------|
D--11-10-13-----11-10-15--------------------------------------------------------|
A-------------------------------------------------------------------------------|
E-------------------------------------------------------------------------------|

Go back to the main riffage, then...


Guitar 1 [1:43] (Chorus 2)
E-------------------------------------------------------------------------------|
B-------------------------------------------------------------------------------|
G-------------------------------------------------------------------------------|
D--10------------------------------------------------------------8--------------|
A--8-------------------------------------------------------------6--------------|
E-------------------------------------------------------------------------------|


Guitar 2 [2:07] (Chorus 2)
E-------------------------------------------------------------------------------|
B-------------------------------------------------------------------------------|
G-------------------------------------------------------------------------------|
D--11-11-10-10--------11-10-13---11-10-15---------------------------------------|
A-------------------------------------------------------------------------------|
E-------------------------------------------------------------------------------|
Comments